Foo Fighters - Burn Away
Tuning (D-A-D-G-B-E)
Intro x2
E---------------------
B---------------------
G---------------------
D--7-7-5-9-7-5-7-9~---
A--7-7-5-9-7-5-7-9~---
E--7-7-5-9-7-5-7-9~---
E-0-0-0-0-0-0----
B-3-3-3-3-3-3----
G-2-2-2-2-2-2----
D-0-0-0-0-0-0----
A-0-0-0-0-0-0----
D-0-0-0-0-0-0----
After intro x2
E--------------------------
B--------------------------
G--------------------------
D--------------------------
A--------------------------
D--7-7-5-9-7-5-7-9-2-0-0---
E----------------------------
B----------------------------
G----------------------------
D----------------------------
A----------------------------
D--7-7-12-9-7-5-7-9-2-0-0---
Verse x4
E----------------------------
B----------------------------
G---------------------------- *As many times as necessary
D--7-7/5-5-5-5-5-5-5-5-5-5---
A--7-7/5-5-5-5-5-5-5-5-5-5---
D--7-7/5-5-5-5-5-5-5-5-5-5---
E---------------------------------
B---------------------------------
G-------7-7-7-7-7-7-7-7-7-7-7-7---
D--7-7--7-7-7-7-7-7-7-7-7-7-7-7---
A--7-7--5-5-5-5-5-5-5-5-5-5-5-5---
D--7-7--0-0-0-0-0-0-0-0-0-0-0-0---
Fill
E-----------------------------------
B-----------------------------------
G-----------------------------------
D-----------------------------------
A-----------------------------------
D--7-7-5-9-7-5-7-9-2-0-0------------
Pre-Chorus x 4
E-----------------------------------------------------
B-------------------------------------------3-3-------
G-------------------------------------------2-2-------
D-------------------------------------------0-0-------
A-------------------------------------------0-0-------
D--5-5-5-5-59---4-4-4-4-47---2-2-2-2-27--0-0--2-4--
Chorus
E-------------------------------------------------
B-------------------------------------------------
G------------------------7-7-7-7-7----------------
D--5-5-5-5-5--7-7-7-7-7--7-7-7-7-7--5-5-5-5-5-----
A--5-5-5-5-5--7-7-7-7-7--5-5-5-5-5--5-5-5-5-5-----
D--5-5-5-5-5--7-7-7-7-7-------------5-5-5-5-5-----
E------------------------------------------------------
B------------------------------------------------------
G--12-12-12-12-12-------------7-7-7-7-7----------------
D--12-12-12-12-12--7-7-7-7-7--7-7-7-7-7--5-5-5-5-5-----
A--10-10-10-10-10--7-7-7-7-7--5-5-5-5-5--5-5-5-5-5-----
D------------------7-7-7-7-7-------------5-5-5-5-5-----
E----------------------------------------------------------------
B----------------------------------------------------------------
G--12-12-12-12-12------------------------5-5-5-5-5---------------
D---x--x--x--x--x--7-7-7-7-7--9-9-9-9-9--5-5-5-5-5--5-5-5-5-5----
A--10-10-10-10-10--7-7-7-7-7--9-9-9-9-9--3-3-3-3-3--5-5-5-5-5----
D------------------7-7-7-7-7--9-9-9-9-9-------------5-5-5-5-5----
E---------------------
B---------------------
G---------------------
D--2-2-2-2--5-5-5-5---
A--2-2-2-2--5-5-5-5---
D--2-2-2-2--5-5-5-5---
After Intro Riff x2
Verse x 4
Fill
E-----------------------------------
B-----------------------------------
G-----------------------------------
D-----------------------------------
A-----------------------------------
D--7-7-5-9-7-5-7-9-2-0-0------------
Pre-Chorus x4
Chorus
After intro riff x1
Bridge
E--------------------------------
B--------------------------------
G--------------------------------
D---9-9-9-9---7-7-7-7---5-5-5-5--
A---9-9-9-9---7-7-7-7---5-5-5-5--
D---9-9-9-9---7-7-7-7---5-5-5-5--
Intro x1
AFter intro riff x 3
Ending
E-------------0~---
B-------------3~---
G-------------2~---
D---7--5---7--0~---
A---7--5---7--0~---
D---7--5---7--0~---
Key
( ) = Play only one time through
* = Natural Harmonic
x = Mute
~ = Let ring
= Slide down
/ = Slide up
Tabbed by James Graham (burnaway_fighte)
If any one has any corrections then e-mail on
[email protected]




Ваше мнение



Капча