Intro
(B) (E) (C#m) (C)
E-0---------------|-0---------------|-0---------------|-0---------------|
B-0---------------|-0---------------|-0---------------|-0---------------|
G-4---------------|-9---------------|-6---------------|-5---------------|
D-4---------------|-9---------------|-6---------------|-5---------------|
A-2---------------|-7---------------|-4---------------|-3---------------|
E-----------------|-----------------|-----------------|-----------------|
play twice
(B) (E) (C#m) (C)
v v ^ ^ v ^ v v ^ ^ v ^ v v ^ ^ v ^ v v ^ ^ v ^
E-0---0-0---0-0-0-|-0---0-0---0-0-0-|-0---0-0---0-0-0-|-0---0-0---0-0-0--|
B-0---0-0---0-0-0-|-0---0-0---0-0-0-|-0---0-0---0-0-0-|-0---0-0---0-0-0--|
G-4---4-4---4-4-4-|-9---9-9---9-9-9-|-6---6-6---6-6-6-|-5---5-5---5-5-5--|
D-4---4-4---4-4-4-|-9---9-9---9-9-9-|-6---6-6---6-6-6-|-5---5-5---5-5-5--|
A-2---2-2---2-2-2-|-7---7-7---7-7-7-|-4---4-4---4-4-4-|-3---3-3---3-3-3--|
E-----------------|-----------------|-----------------|------------------|
play twice (second time let it ring here--------^
Chorus
(B) (G) (B) (E)
E-----------------|-3-3-3-3-3---3---|-----------------|-0-0-0-0-0-0-0-0-|
B-4-4-4-4-4---4-x-|-3-3-3-3-3---3---|-4-4-4-4-4---4-x-|-0-0-0-0-0-0-0-0-|
G*4-4-4-4-4---4-x-|-4-4-4-4-4---4---|-4-4-4-4-4---4-x-|-1-1-1-1-1-1-1-1-|
D*4-4-4-4-4---4-x-|-5-5-5-5-5---5-x-|-4-4-4-4-4---4-x-|-2-2-2-2-2-2-2-2-|
A-2-2-2-2-2---2-x-|-5-5-5-5-5---5-x-|-2-2-2-2-2---2-x-|-2-2-2-2-2-2-2-2-|
E-----------------|-3-3-3-3-3---3-x-|-----------------|-0-0-0-0-0-0-0-0-|
(G) (Emsus4) (G) (Emsus4)
E-----------------|-----------------|-----------------|-----------------||
B-----------------|-----------------|-----------------|-----------------||
G-----------------|-----------------|-----------------|----------------*||
D-5-5-5-5-5-5-5-5-|-2-2-2-2-2-2-2-2-|-5-5-5-5-5-5-5-5-|-2-2-2-2-2-2-2-2*||
A-5-5-5-5-5-5-5-5-|-2-2-2-2-2-2-2-2-|-5-5-5-5-5-5-5-5-|-2-2-2-2-2-2-2-2-||
E-3-3-3-3-3-5-5-3-|-0-0-0-0-5-0-5-0-|-3-3-3-3-3-5-5-3-|-0-0-0-0-5-0-5-0-||
Riff before verse
(B) (G)
E-----------------|-----------------|-----------------|-----------------|
B-----------------|-----------------|-----------------|-----------------|
G-------4-------4-|-------4---------|-------7-------8-|-------7---5-4---|
D-4---4-----4-----|---4-------4-4-4-|-4/5-5-----5-5---|---5-5-----5-5---|
A-2---2-------2---|-----2-----------|-----------------|-----------------|
E-----------------|-----------------|-----------------|-----------------|
OR
(B) (G)
E-----------------|-----------------|-----------------|-----------------|
B-----------------|-----------------|-----------------|-----------------|
G-----------------|-----------------|-----------------|-----------------|
D-4-4-4-4-4-4-4-4-|-4-4-4-4-4-111111|11/1212-12-12\11-|111111\9-9-9-9---|
A-2-2-2-2-2-2-2-2-|-2-2-2-2-2-9-9-9-|-9/1010-10-10\9--|-9-9-9\7-7-7-7---|
E-----------------|-----------------|-----------------|-----------------|
Verse
(B) (G)
E-----------------|-----------------|-----------------|-----------------|
B-----------------|-----------------|-----------------|-----------------|
G-4---------------|-------------4---|-----------------|-----------------|
D-4---------------|-------------4---|-5---------------|-------------5---|
A-2---------------|-------------2---|-5---------------|-------------5---|
E-----------------|-----------------|-3---------------|-------------3---|
(B) (E)
E-----------------|-----------------|-----------------|-----------------|
B-----------------|-----------------|-----------------|-----------------|
G-4---------------|-------------4---|-9---------------|-----------------|
D-4---------------|-------------4---|-9---------------|-----------------|
A-2---------------|-------------2---|-7---------------|-----------------|
E-----------------|-----------------|-----------------|-----------------|
(G) (D/F#)(Emsus4)
E-3-3-3-3-3-3-3-3-|-3-3-3-3-3-3-3-3-|-3-3-3-3-3-3-3-3-|-3-3-3-3-3-3-3-3-|
B-3-3-3-3-3-3-3-3-|-3-3-3-3-3-3-3-3-|-3-3-3-3-3-3-3-3-|-3-3-3-3-3-3-3-3-|
G-0-0-0-0-0-0-0-0-|-0-0-0-0-0-0-0-0-|-0-0-0-0-0-0-0-0-|-0-0-0-0-0-0-0-0-|
D-0-0-0-0-0-0-0-0-|-0-0-0-0-0-0-0-0-|-2-2-2-2-2-2-2-2-|-2-2-2-2-2-2-2-2-|
A-2-2-2-2-2-2-2-2-|-2-2-2-2-2-2-0-0-|-2-2-2-2-2-2-2-2-|-2-2-2-2-2-2-2-2-|
E-3-3-3-3-3-3-3-3-|-3-3-3-3-3-3-2-2-|-0-0-0-0-0-0-0-0-|-0-0-0-0-0-0-0-0-|
Here play the Intro
Then play the chorus
Pause bit
(B)
E-7-7-7-7-7-7-7-7-|-7-7-7-7-7-------|
B-7-7-7-7-7-7-7-7-|-7-7-7-7-7-------|
G-----------------|-----------------|
D-----------------|-----------------|
A-----------------|-----------------|
E-----------------|-----------------|
The breakout scream bit
(B) (A) (C#) (E) (Esus2)
E-----------------|-----------------|
B-----------------|-----------------|
G-4-4---2-2---6-6-|---9-9-9-9-9-9-9-|
D-4-4---2-2---6-6-|---9-9-9-9-9-9-9-|
A-2-2---0-0---4-4-|---7-7-9-9-9-9-9-|
E-----------------|-----------------|
Ending notes
(B) (A) (C#) (E)
E-----------------|-----------------|
B-----------------|-----------------|
G-4-4---2-2---6-6-|-----------------|
D-4-4---2-2---6-6-|---2-2-----------|
A-2-2---0-0---4-4-|---2-2-----------|
E-----------------|---0-0-----------|
Now here are the lyrics. Listen to the song and play the various
riffs at the right parts in the song.
You make me dizzy running circles in my head
One of these days I'll chase you down
Well look who's going crazy now we're face to face my friend
Try to get out, Try to get out
(Chorus)
You know you make me breakout, make me breakout
I don't wanna look like that, I don't wanna look like that
You know you make me breakout, make me breakout
I don't wanna look like that, I don't wanna look like that
You know you make me break...
I can see it's in your face it's all for you
The more and more see, can't break quite through
Yeah theropy still scares me putting me on my back again
I may be crazy, little frayed around the ends
One of these days I'll phase you out
Burning in the blast off, Burning in the blast off
Watch me crawl away
Better get out, Better get out
(Chorus)
You know you make me breakout, make me breakout
I don't wanna look like that, I don't wanna look like that
You know you make me breakout, make me breakout
I don't wanna look like that, I don't wanna look like that
I don't wanna look like that
BREAKOUT, BREAKOUT, BREAKOUT, BREAKOUT, GO GO GO
(Chorus)
You know you make me breakout, make me breakout
I don't wanna look like that, I don't wanna look like that
You know you make me breakout, make me breakout
I don't wanna look like that, I don't wanna look like that
I don't wanna look like that, I don't wanna look like that
You know you make me breakout, make me breakout




Ваше мнение



Капча