Artist: Foo Fighters
Song: Aroura
Album: Nothing left to lose
Tab By: Mark Peacock
Email: [email protected]
This is hopefully the complete bass line to the Foo Fighters song Aroura.
please e-mail me if there are any mistakes.
0:12 x8-singing after 2
G||-------------------------------------------------------------------------------------|
D||-------------------------------------------------------------------------------------|
A||-------------------------------------------------------------------------------------|
E||--5------2------4--57------5---------------------------------------------------------|
1:12
G||--Hell Yeah-------------Hell Yeah------------------------------------------------------|All THis
Time-----------Hell yeah------------------------------------------------------------------|
D||----------------------------------------------7----7----------4-67------7--------------|
A||--------------------------5-7------------------5--5-7----75-57-7---------57-4575-------|
E||--5------4------2-5-----55-5--444-2-0-2--5-----------------7----------55---4-----025---|
1:37 1:49
G||--Take
me---------------------------------------------Turn---------------------------------------|
D||---------7-64-467---------7-64------------7-64-467-----3----5----7----3----5-----------|
A||--54---45----7-----54---45----7----54---45----7----------------------------------------|
E||----757--------------757-------------757--------------1-1--3-3--5----1-1--3-3----------|
1:55 x6-singing after 2
G||-------------------------------------------------------------------------------------|
D||-------------------------------------------------------------------------------------|
A||-------------------------------------------------------------------------------------|
E||--5------2------4--57------5---------------------------------------------------------|
2:40
G||--Hell Yeah-------------Hell Yeah------------------------------------------------------|All THis
Time-----------Hell yeah------------------------------------------------------------------|
D||----------------------------------------------7----7----------4-67------7--------------|
A||--------------------------5-7------------------5--5-7----75-57-7---------57-4575-------|
E||--5------4------2-5-----55-5--444-2-0-2--5-----------------7----------55---4-----025---|
3:05 3:17
G||--Take
me---------------------------------------------Turn---------------------------------------|
D||---------7-64-467---------7-64------------7-64-467-----3----5----7----3----5-----------|
A||--54---45----7-----54---45----7----54---45----7----------------------------------------|
E||----757--------------757-------------757--------------1-1--3-3--5----1-1--3-3----------|
3:25 x2
G||--On and
on----------------------------------------------------------------------------------------|
D||---------------------------------------------------------------------------------------|
A||---------------------------------------------------------------------------------------|
E||--5----------2----------4----7---------------------------------------------------------|
3:48 4:00 this little
bit x4
G||--Take
me---------------------------------------------Turn---------------------------------------|
D||---------7-64-467---------7-64------------7-64-467-----3----5----7---------------------|
A||--54---45----7-----54---45----7----54---45----7----------------------------------------|
E||----757--------------757-------------757--------------1-1--3-3--5----------------------|
4:27 x4 5:00 5:30
G||---------------------------------------------------------------------------------------|
D||-------------------------------------------keep hitting A------------------------------|keep
sliding to 12-----------------------------------------------------------------------------|
A||-------------------------------------------0--------------------/12--------------------|
E||--5----------2----------4----7----5----------------------------------------------------|
5:30 (if ur feeling abit bored of sliding to 12 then try this..)
G||--------------------------------------------------------------------------------------|
D||--7-6----7-11----12-7----14-9----7--11-12---------------------------------------------|
A||--0-0----0-0-----0--0----0--0----0--0--0----------------------------------------------|
E||--------------------------------------------------------------------------------------|




Ваше мнение



Капча