Artist: Foo Fighters
Title: Alone + Easy Target
CD: Selftitled
My Email: [email protected]
This is track number 4 of the Foo's first album. Its a fairly cool song.
It is in drop D. This tab covers the whole song too. But I created for one
guitar. It only really takes one guitar, the other one on the CD is barely heard
so I didnt bother to tab it. I dont know if the rhythm of the intro is right, but
those are the two notes in the beginning.
b = Bend strings
Intro/Verse
e||--8-8-8--8-8----8-8----8-8------------0------------0-------|
B||--7-7-7--8-7----7-8----7-8------------0------------0-------|
G||--7-7-7--7-7----7-7----7-7----3-3-3--------1-1-1-----------|
D||--0-0-0--0-0----0-0----0-0----4-4-4--------2-2-2-----------|
A||------------------------------4-4-4--------2-2-2-----------|
D||-----------------------------------------------------------|

Chorus:
e||----------------------------------------------------------------|
B||----------------------------------------------------------------|
G||----------------------------------------------------------------|
D||-0---0---0---3---5---5---5---3---0---0---0---3---7---7---7---7--|
A||-0---0---0---3---5---5---5---3---0---0---0---3---7---7---7---7--|
D||-0---0---0---3---5---5---5---3---0---0---0---3---7---7---7---7--|
Head is on I want out.
e|----------------------------------------------------|
B|----------------------------------------------------|
G|----------------------------------------------------|
D|-3------3---3------3---3--10-----10--10-----10--10--|
A|-3------3---3------3---3--10-----10--10-----10--10--|
D|-3------3---3------3---3--10-----10--10-----10--10--|
I'm alone and I'm an easy target...
Bridge:
e||----------------------------------------------|
B||----------------------------------------------|
G||----------------------------------------------|
D||--5--5-----5---5-----5--5------5--5------5----|
A||--5--5-----5---5-----5--5------5--5------5----|
D||--5--5--7--5---5--7--5--5---7--5--5--7---5----|
Did you ever listen ?
e||-------------------------------------------------|
B||-------------------------------------------------|
G||-------------------------------------------------|
D||--7--7--7--7---7--7--7--7---7--7--7--7---7--9b---|
A||--7--7--7--7---7--7--7--7---7--7--7--7---7--9b---|
D||--7--7--7--7---7--7--7--7---7--7--7--7---7--9b---|
Get out! Get out! Get out!
And thats the song. Thanks for reading... Hope you enjoy it.




Ваше мнение



Капча