From: littleboodle [email protected]
#----------------------------------PLEASE NOTE---------------------------------#
#This file is the author's own work and represents their interpretation of the #
#song. You may only use this file for private study, scholarship, or research. #
#------------------------------------------------------------------------------#
Introduction.
E|-------------------------------------------------------|
B|-------------------------------------------------------|
G|-------------------------------------------------------|
D|--5-5--5--5-5--5--5-5--5--5-5--------------------------|
A|--5-5--5--5-5--5--5-5--5--5-5--------------------------|
E|--3-3--3--3-3--3--3-3--3--3-3--------------------------|
E|--------------------------------------------------------|
B|--------------------------------------------------------|
G|-----------------------3--3------------------------6--6-|
D|-5-5---5-5--5-5-5---5--3--3--5-5---5-5--5-5-5---5--6--6-|
A|-5-5---5-5--5-5-5---5--1--1--5-5---5-5--5-5-5---5--4--4-|
E|-3-3-0-3-3--3-3-3-0-3--------3-3-0-3-3--3-3-3-0-3-------|
Guitar 2
E|----------------------------------------------------------|
B|----------------------------------------------------------|
G|-3-3-3-3-3--3-3-3-3-3--5--5--3-3-3-3-3--3-3-3-3-3--6--6---|
D|-x-x-x-x-x--x-x-x-x-x--x--x--x-x-x-x-x--x-x-x-x-x--x--x---|
A|-1-1-1-1-1--1-1-1-1-1--3--3--1-1-1-1-1--1-1-1-1-1--4--4---|
E|----------------------------------------------------------|
Verses
Guitar 1
E|-----------------------------------------------------------------------|
B|-----------------------------------------------------------------------|
G|------------------------------3--3--------------------------------6--6-|
D|------------------------------3--3--------------------------------6--6-|
A|------------------------------1--1--------------------------------4--4-|
E|-----------------------------------------------------------------------|
Guitar 2
E|-----------------------------------------------------------------------|
B|-----------------------------------------------------------------------|
G|----3-------3------3------3---5--5------3-------3------3------3---6--6-|
D|------------------------------x--x--------------------------------x--x-|
A|------------------------------3--3--------------------------------4--4-|
E|-3---3-3-3-------3--3-3-3-----------3----3-3-3-------3--3-3-3----------|
Chorus
Guitars 1 and 2
E|--------------------------------------------------------
B|-4-4-4-4-4-4-4-4-4-4-4-4-3-3-3-3-3-3-3-3-3-3-3-3--------
G|-0-0-0-0-0-0-0-0-0-0-0-0-0-0-0-0-0-0-0-0-0-0-0-0--------
D|-5-5-5-5-5-5-5-5-5-5-5-5-5-5-5-5-5-5-5-5-5-5-5-5--------
A|-6-6-6-6-6-6-6-6-6-6-6-6-5-5-5-5-5-5-5-5-5-5-5-5--------
E|--------------------------------------------------------
E|-0-0-0-0-0-0-1-1-1-1-1-1-6-6-6-6-6-6-6-3----------------
B|-1-1-1-1-1-1-1-1-1-1-1-1-6-6-6-6-6-6-6-3----------------
G|-0-0-0-0-0-0-2-2-2-2-2-2-6-6-6-6-6-8-6-4----------------
D|-2-2-2-2-2-2-3-3-3-3-3-3-8-8-8-8-8-8-8-5----------------
A|-3-3-3-3-3-3-3-3-3-3-3-3-8-8-8-8-8-6-8-5----------------
E|-0-0-0-0-0-0-1-1-1-1-1-1-6-6-6-6-6-6-6-3----------------




Ваше мнение



Капча