Intro/Verse - ритм, палм мъютинг (приглушение рукой)
E-----------------------------------|
B-----------------------------------|
G-----------------------------------|
D-6-6-6--6-6-6--6-6-6--6-6-6--6-6-6-|
A-6-6-6--6-6-6--6-6-6--6-6-6--6-6-6-|
E-4-4-4--4-4-4--4-4-4--4-4-4--4-4-4-|
´All my life I´ve been searching for somethin´
Somethin’ never comes, never leads to nuthin’
Nothin’ satisfies, but I’m getting close
Closer to the prize at the end of the rope
All night long I dream of the day,
When it comes around, and it’s taken away
Leaves me with the feelin that I feel the most
I feel it come to life when I see your ghost´
Эта часть играется в обоих запевах перед припевом
E---------------------------|
B---------------------------|
G-4-4-4-4-4-6--4-4-4-4--7-7-|
D-6-6-6-6-6-8--6-6-6-6--9-9-|
A---------------------------|
E---------------------------|

´Come down don’t you resist
You have such a delicate wrist
And if I give it a twist
Something to hold when I lose my grip
Will I find something in that
So give me just what I need
Another reason to bleed´
One by one hidden up my sleeve,
one by one hidden up my sleeve - это играется как в самом начале, приглушая рукой
Hey, don’t let it go to waste
E---------------------------|
B---------------------------|
G---------------|
D-5-5-5-5-5--------|
A-6-6-6-6-6-----------------|
E-3-3-3-3-3-----------------|
I love it but I hate the taste -
E---------------------------|
B---------------------------|
G---------------|
D-5-5-5-5-5--------|
A-5-5-5-5-5-----------------|
E-3-3-3-3-3-----------------|
Weight - keeping me - down (2x)
E---------------------------|
B---------------------------|
G---------------|
D-2-2-2-2--3-3-3-3-3-3--8-8-8-8
A-2-2-2-2--3-3-3-3-3-3--8-8-8-8
E-0-0-0-0--1-1-1-1-1-1--6-6-6-6
Затем все с самого начала
Will I find the believer?
Another one who believes
Another one to deceive
Over and over down on my knees´
If I get any closer
And if you open up wide
And if you let me inside
On and on I’ve got nothing to hide,
on and on I got nothing to hide´
hey, don´t let it go to waste
I love it but I hate the taste
Weight keeping me down(2x)´
Играем интро, не забывая про приглушение рукой
All my life I´ve been searching for somethin´
Somethin’ never comes, never leads to nothin’
Nothin’ satisfies, but I’m getting close
Closer to the prize at the end of the rope
All night long I dream of the day
When it comes around and it’s taken´ away
Leaves me with the feelin that I feel the most
Feel it come to life when I see your ghost´
Убираем палм мъютинг, включаемм примочку(Overdrive, Distortion) и да будет РОК!
´And I´m done, done onto the next one
Done,Done and i´m onto the next one
Done, Done and i´m onto the next one
Done, i´m Done and i´m onto the next one
Done, Done and i´m onto the next one
Done, Done and i´m onto the next one
Done, Done and i´m onto the next one
Done I´m done and I´m onto the next´

DONE! DONE! ONTO THE NEXT ONE DONE
DONE I´M DONE AND I´M ONTO THE NEXT ONE
DONE! DONE! ONTO THE NEXT ONE DONE
DONE! I´M DONE AND I´M ONTO THE NEXT!
(РОК-Н-РОЛЛ!!!)
hey, don´t let it go to waste
I love it but I hate the taste
Weight keeping me down (x2)
DONE DONE ONTO THE NEXT ONE
DONE I´M DONE AND I´M ONTO THE NEXT...
Наслаждайтесь самыми удобными табами в мире и помните что они правильные так как у меня
абсолютный слух.
Vass Vass




Ваше мнение



Капча