-Ain't It The Life - Foo Fighters - There Is Nothing Left To Lose-
Transcribed by Brian - [email protected]
INTRO
C (tremelo bend down)
e-0---------------3---------3-3-3-3-3--5b-5b-5b-5b-3-----3-----
b---1--------1/5-----5--3-----------------------------5--------
g-----0--------------------------------------------------------
d-------2------------------------------------------------------
a---------3----------------------------------------------------
E--------------------------------------------------------------
C
Dear Haley, Can You Save Me
Am
From The Borrowed Cloud I'm On
Fm
All You Gotta Do Is Try
C Em F
Pray You're Just Getting By
C
Hey, Wait I Thought You'd Made It
Am
How'd Your Bottled Crown Fall Off
Fm
Tell Me How'd You Get So Tired
C Em F
Faded Down To The Wire
G C B Am
Try Living A Lie And Kicking Out The Same Old Guise
Fm
Wasting Time
C
So Very Ordinary
Am
Wait Until My Bomb Goes Off
Fm
See The Actors Run And Hide
C Em F
Fake It All In Stride
C
One Day We All Can Say We're Gone
Am
And Haunt The Ground We're From
Fm
Everything's So Open Wide
C Em F
Here Within The Divide
C
Aint It The Life, Ain't It The Life
Am
Aint It The Life, Got No Crime
F C
Just Sail On By
G F
Sail On By, Aint It The Life
Play Intro Again

SOLO
e--------12------------|---------12----------------------------
b-12h13------13-12-13--|--12h13------13-12-13------------------
g----------------------|---------------------------------------
d----------------------|---------------------------------------
a----------------------|---------------------------------------
E----------------------|---------------------------------------

e----------------|---------------------------------------------
b-8/10/8---------|--8/10/8-------------------------------------
g---------7/9----|-----------7/9--7--5-------------------------
d----------------|---------------------------------------------
a----------------|---------------------------------------------
E----------------|---------------------------------------------

e---------8-----8-|--8--7-7--7--5--3--5b-----------------------
b------8-----8----|-----------------------5b-------------------
g-5/9-------------|--------------------------------------------
d-----------------|--------------------------------------------
a-----------------|--------------------------------------------
E-----------------|--------------------------------------------

ENDING
e-----------------|--------------------------------------------
b--8-8-8-8--6--5--|--5-3-3-3-3-1-------------------------------
g--9-9-9-9--7--5--|--5-4-4-4-4-2-------------------------------
d-----------------|--------------------------------------------
a-----------------|--------------------------------------------
E-----------------|--------------------------------------------




Ваше мнение



Капча