THIRTY-THREE 33 - FOREVER
GUITAR TAB + LYRICS
INTRO
E--------0----------3--------5---|
B--------0----------3--------5---|
G--------1----------4--------6---|
D------2------------5--------7---|
A----2------------5--------7-----|
E--0------------3--------5-------|
E--------0----------5--------3---|
B--------0----------5--------3---|
G--------1----------6--------4---|
D------2------------7--------5---|
A----2------------7--------5-----|
E--0------------5--------3-------|
E--------0----------5--------7---|
B--------0----------5--------7---|
G--------1----------6--------8---|
D------2------------7--------9---|
A----2------------7--------9-----|
E--0------------5--------7-------|
E--------0----------7--------5---0-------|
B--------0----------7--------5---0-------|
G--------1----------8--------6---0-------|
D------2------------9--------7---2-------|
A----2------------9--------7-----2-------|
E--0------------7--------5-------0-------|
PREVERSE
E-------------------------------------------|
B-------------------------------------------|
G-------5-5-5-5-------7-7-7-7b--------------|
D--2-2--5-5-5-5--5-5--7-7-7-7b--------------|
A--2-2--3-3-3-3--5-5--5-5-5-5---------------|
E--0-0-----------3-3------------------------|
E-------------------------------------------|
B-------------------------------------------|
G-------5-5-5-5-----------------------------|
D--2-2--5-5-5-5--5-5-5-5-5-5----------------|
A--2-2--3-3-3-3--5-5-5-5-5-5----------------|
E--0-0-----------3-3-3-3-3-3----------------|
CHORUS
E----------------------------------------------------|
B----------------------------------------------------|
G-------5-5-5-5-------7-7-7-7b-----------------------| You and me
D--2-2--5-5-5-5--5-5--7-7-7-7b-----------------------| We were meant to be
A--2-2--3-3-3-3--5-5--5-5-5-5------------------------|
E--0-0-----------3-3---------------------------------|
E-----------------------------------------------------|
B-----------------------------------------------------|
G-------5-5-5-5-------7-7-7-7b------------------------| Together
D--2-2--5-5-5-5--5-5--7-7-7-7b------------------------| Forever
A--2-2--3-3-3-3--5-5--5-5-5-5-------------------------|
E--0-0-----------3-3----------------------------------|
VERSE 1
E-----------------------------------------------|
B-----------------------------------------------|
G-------5-5-5-5-------7-7-7-7b------------------| Everything just
D--2-2--5-5-5-5--5-5--7-7-7-7b------------------| Seemed ok
A--2-2--3-3-3-3--5-5--5-5-5-5-------------------|
E--0-0-----------3-3----------------------------|
E-----------------------------------------------|
B-----------------------------------------------|
G-------5-5-5-5-------7-7-7-7b------------------| Last night
D--2-2--5-5-5-5--5-5--7-7-7-7b------------------| You loved me
A--2-2--3-3-3-3--5-5--5-5-5-5-------------------|
E--0-0-----------3-3----------------------------|
PREVERSE
E-------------------------------------------|
B-------------------------------------------|
G-------5-5-5-5-------7-7-7-7b--------------|
D--2-2--5-5-5-5--5-5--7-7-7-7b--------------|
A--2-2--3-3-3-3--5-5--5-5-5-5---------------|
E--0-0-----------3-3------------------------|
E-------------------------------------------|
B-------------------------------------------|
G-------5-5-5-5-----------------------------|
D--2-2--5-5-5-5--5-5-5-5-5-5----------------|
A--2-2--3-3-3-3--5-5-5-5-5-5----------------|
E--0-0-----------3-3-3-3-3-3----------------|
VERSE 2
E------------------------------------------------|
B------------------------------------------------|
G-------5-5-5-5-------7-7-7-7b-------------------| But now
D--2-2--5-5-5-5--5-5--7-7-7-7b-------------------| What have I don wrong?
A--2-2--3-3-3-3--5-5--5-5-5-5--------------------|
E--0-0-----------3-3-----------------------------|
E-------------------------------------------------|
B-------------------------------------------------|
G-------5-5-5-5-------7-7-7-7b--------------------| You don't want me
D--2-2--5-5-5-5--5-5--7-7-7-7b--------------------| Anymore
A--2-2--3-3-3-3--5-5--5-5-5-5---------------------|
E--0-0-----------3-3------------------------------|
E--------------------------------------------------|
B--------------------------------------------------|
G-------5-5-5-5-------7-7-7-7b---------------------| But my love for
D--2-2--5-5-5-5--5-5--7-7-7-7b---------------------| You is still strong
A--2-2--3-3-3-3--5-5--5-5-5-5----------------------|
E--0-0-----------3-3-------------------------------|
E--------------------------------------------------|
B--------------------------------------------------|
G-------5-5-5-5-------7-7-7-7b---------------------| I will never
D--2-2--5-5-5-5--5-5--7-7-7-7b---------------------| Let you go
A--2-2--3-3-3-3--5-5--5-5-5-5----------------------|
E--0-0-----------3-3-------------------------------|
PREVERSE
E-------------------------------------------|
B-------------------------------------------|
G-------5-5-5-5-------7-7-7-7b--------------|
D--2-2--5-5-5-5--5-5--7-7-7-7b--------------|
A--2-2--3-3-3-3--5-5--5-5-5-5---------------|
E--0-0-----------3-3------------------------|
E-------------------------------------------|
B-------------------------------------------|
G-------5-5-5-5-----------------------------|
D--2-2--5-5-5-5--5-5-5-5-5-5----------------|
A--2-2--3-3-3-3--5-5-5-5-5-5----------------|
E--0-0-----------3-3-3-3-3-3----------------|
INTRO
E--------0----------3--------5---|
B--------0----------3--------5---|
G--------1----------4--------6---|
D------2------------5--------7---|
A----2------------5--------7-----|
E--0------------3--------5-------|
E--------0----------5--------3---|
B--------0----------5--------3---|
G--------1----------6--------4---|
D------2------------7--------5---|
A----2------------7--------5-----|
E--0------------5--------3-------|
E--------0----------5--------7---|
B--------0----------5--------7---|
G--------1----------6--------8---|
D------2------------7--------9---|
A----2------------7--------9-----|
E--0------------5--------7-------|
E--------0----------7--------5---0-------|
B--------0----------7--------5---0-------|
G--------1----------8--------6---0-------|
D------2------------9--------7---2-------|
A----2------------9--------7-----2-------|
E--0------------7--------5-------0-------|
PREVERSE
E-------------------------------------------|
B-------------------------------------------|
G-------5-5-5-5-------7-7-7-7b--------------|
D--2-2--5-5-5-5--5-5--7-7-7-7b--------------|
A--2-2--3-3-3-3--5-5--5-5-5-5---------------|
E--0-0-----------3-3------------------------|
E-------------------------------------------|
B-------------------------------------------|
G-------5-5-5-5-----------------------------|
D--2-2--5-5-5-5--5-5-5-5-5-5----------------|
A--2-2--3-3-3-3--5-5-5-5-5-5----------------|
E--0-0-----------3-3-3-3-3-3----------------|
CHORUS
E----------------------------------------------|
B----------------------------------------------|
G-------5-5-5-5-------7-7-7-7b-----------------| You and me
D--2-2--5-5-5-5--5-5--7-7-7-7b-----------------| We were meant to be
A--2-2--3-3-3-3--5-5--5-5-5-5------------------|
E--0-0-----------3-3---------------------------|
E-----------------------------------------------|
B-----------------------------------------------|
G-------5-5-5-5-------7-7-7-7b------------------| Together
D--2-2--5-5-5-5--5-5--7-7-7-7b------------------| Forever
A--2-2--3-3-3-3--5-5--5-5-5-5-------------------|
E--0-0-----------3-3----------------------------|
VERSE 3
E------------------------------------------------|
B------------------------------------------------|
G-------5-5-5-5-------7-7-7-7b-------------------| I used to laugh
D--2-2--5-5-5-5--5-5--7-7-7-7b-------------------| I used to smile
A--2-2--3-3-3-3--5-5--5-5-5-5--------------------|
E--0-0-----------3-3-----------------------------|
E------------------------------------------------|
B------------------------------------------------|
G-------5-5-5-5-------7-7-7-7b-------------------| I used to have
D--2-2--5-5-5-5--5-5--7-7-7-7b-------------------| someone in my arms
A--2-2--3-3-3-3--5-5--5-5-5-5--------------------|
E--0-0-----------3-3-----------------------------|
E-------------------------------------------------|
B-------------------------------------------------|
G-------5-5-5-5-------7-7-7-7b--------------------| But now
D--2-2--5-5-5-5--5-5--7-7-7-7b--------------------| Everything is gone
A--2-2--3-3-3-3--5-5--5-5-5-5---------------------|
E--0-0-----------3-3------------------------------|
E------------------------------------------------|
B------------------------------------------------|
G-------5-5-5-5-------7-7-7-7b-------------------| This love isn't
D--2-2--5-5-5-5--5-5--7-7-7-7b-------------------| Meant to hold on
A--2-2--3-3-3-3--5-5--5-5-5-5--------------------|
E--0-0-----------3-3-----------------------------|
E------------------------------------------------|
B------------------------------------------------|
G-------5-5-5-5-------7-7-7-7b-------------------|
D--2-2--5-5-5-5--5-5--7-7-7-7b-------------------| Meant to hold on
A--2-2--3-3-3-3--5-5--5-5-5-5--------------------|
E--0-0-----------3-3-----------------------------|
E-------------------------------------------------|
B-------------------------------------------------|
G-------5-5-5-5-------7-7-7-7b--------------------|
D--2-2--5-5-5-5--5-5--7-7-7-7b--------------------| Meant to hold on
A--2-2--3-3-3-3--5-5--5-5-5-5---------------------|
E--0-0-----------3-3------------------------------|
E-------------------------------------------------|
B-------------------------------------------------|
G-------5-5-5-5-------7-7-7-7b--------------------| Meant to hold on
D--2-2--5-5-5-5--5-5--7-7-7-7b--------------------|
A--2-2--3-3-3-3--5-5--5-5-5-5---------------------|
E--0-0-----------3-3------------------------------|
PREVERSE
E-------------------------------------------|
B-------------------------------------------|
G-------5-5-5-5-------7-7-7-7b--------------|
D--2-2--5-5-5-5--5-5--7-7-7-7b--------------|
A--2-2--3-3-3-3--5-5--5-5-5-5---------------|
E--0-0-----------3-3------------------------|
E-------------------------------------------|
B-------------------------------------------|
G-------5-5-5-5-----------------------------|
D--2-2--5-5-5-5--5-5-5-5-5-5----------------|
A--2-2--3-3-3-3--5-5-5-5-5-5----------------|
E--0-0-----------3-3-3-3-3-3----------------|
INTRO
E--------0----------3--------5---|
B--------0----------3--------5---|
G--------1----------4--------6---|
D------2------------5--------7---|
A----2------------5--------7-----|
E--0------------3--------5-------|
E--------0----------5--------3---|
B--------0----------5--------3---|
G--------1----------6--------4---|
D------2------------7--------5---|
A----2------------7--------5-----|
E--0------------5--------3-------|
E--------0----------5--------7---|
B--------0----------5--------7---|
G--------1----------6--------8---|
D------2------------7--------9---|
A----2------------7--------9-----|
E--0------------5--------7-------|
E--------0----------7--------5---0-------|
B--------0----------7--------5---0-------|
G--------1----------8--------6---0-------|
D------2------------9--------7---2-------|
A----2------------9--------7-----2-------|
E--0------------7--------5-------0-------|
RIF (palm muted)
E------------------------------------------------------|
B------------------------------------------------------| You and me
G-----------5555555----------7777777-------------------| We were meant to be
D--2222222--5555555-5555555--7777777-------------------| Together
A--2222222--3333333-5555555--5555555-------------------| Forever
E--0000000--------------3333333------------------------|
E------------------------------------------------------|
B------------------------------------------------------| You and me
G----------5555555-----------7777777-------------------| We were meant to be
D--2222222--5555555-5555555--7777777-------------------| Together
A--2222222--3333333-5555555--5555555-------------------| Forever
E--0000000--------------3333333------------------------|
PREVERSE
E-------------------------------------------|
B-------------------------------------------|
G-------5-5-5-5-------7-7-7-7b--------------|
D--2-2--5-5-5-5--5-5--7-7-7-7b--------------|
A--2-2--3-3-3-3--5-5--5-5-5-5---------------|
E--0-0-----------3-3------------------------|
E-------------------------------------------|
B-------------------------------------------|
G-------5-5-5-5-----------------------------|
D--2-2--5-5-5-5--5-5-5-5-5-5----------------|
A--2-2--3-3-3-3--5-5-5-5-5-5----------------|
E--0-0-----------3-3-3-3-3-3----------------|
CHORUS
E----------------------------------------------|
B----------------------------------------------|
G-------5-5-5-5-------7-7-7-7b-----------------| You and me
D--2-2--5-5-5-5--5-5--7-7-7-7b-----------------| We were meant to be
A--2-2--3-3-3-3--5-5--5-5-5-5------------------|
E--0-0-----------3-3---------------------------|
E-----------------------------------------------|
B-----------------------------------------------|
G-------5-5-5-5-------7-7-7-7b------------------| Together
D--2-2--5-5-5-5--5-5--7-7-7-7b------------------| Forever
A--2-2--3-3-3-3--5-5--5-5-5-5-------------------|
E--0-0-----------3-3----------------------------|
VERSE 4
GUITAR 1
E------------------------------------------------|
B------------------------------------------------|
G-------5-5-5-5-------7-7-7-7b-------------------| You and me
D--2-2--5-5-5-5--5-5--7-7-7-7b-------------------| We were meant to be
A--2-2--3-3-3-3--5-5--5-5-5-5--------------------|
E--0-0-----------3-3-----------------------------|
E-------------------------------------------------|
B-------------------------------------------------|
G-------5-5-5-5-------7-7-7-7b--------------------| Together
D--2-2--5-5-5-5--5-5--7-7-7-7b--------------------| Forever
A--2-2--3-3-3-3--5-5--5-5-5-5---------------------|
E--0-0-----------3-3------------------------------|
E-------------------------------------------|
B-------------------------------------------|
G-------5-5-5-5-------7-7-7-7b--------------|
D--2-2--5-5-5-5--5-5--7-7-7-7b--------------|
A--2-2--3-3-3-3--5-5--5-5-5-5---------------|
E--0-0-----------3-3------------------------|
B-------------------------------------------|
G-------5-5-5-5-------7-7-7-7b--------------|
D--2-2--5-5-5-5--5-5--7-7-7-7b--------------|
A--2-2--3-3-3-3--5-5--5-5-5-5---------------|
E--0-0-----------3-3------------------------|
GUITAR 2 (while guitar 1 plays verse 4)
This is the base of the solo, there's much more to it but you have to figure it out yourself
E-------------------------------------------|
B--0-0---8-8-8-8--------10-10-10-10---------|
G-------------------7-7---------------------|
D-------------------------------------------|
A-------------------------------------------|
E-------------------------------------------|
E-------------------------------------------|
B--0-0---8-8-8-8----------------------------|
G-------------------7-7-7-7-7-7-------------|
D-------------------------------------------|
A-------------------------------------------|
E-------------------------------------------|
E-------------------------------------------|
B--0-0---8-8-8-8--------10-10-10-10---------|
G-------------------7-7---------------------|
D-------------------------------------------|
A-------------------------------------------|
E-------------------------------------------|
E-------------------------------------------|
B--0-0---8-8-8-8----------------------------|
G-------------------7-7-7-7-7-7-------------|
D-------------------------------------------|
A-------------------------------------------|
E-------------------------------------------|
CHORUS
E----------------------------------------------|
B----------------------------------------------|
G-------5-5-5-5-------7-7-7-7b-----------------| You and me
D--2-2--5-5-5-5--5-5--7-7-7-7b-----------------| We were meant to be
A--2-2--3-3-3-3--5-5--5-5-5-5------------------|
E--0-0-----------3-3---------------------------|
E-----------------------------------------------|
B-----------------------------------------------|
G-------5-5-5-5-------7-7-7-7b------------------| Together
D--2-2--5-5-5-5--5-5--7-7-7-7b------------------| Forever
A--2-2--3-3-3-3--5-5--5-5-5-5-------------------|
E--0-0-----------3-3----------------------------|
CHORUS WHILE SOLO
E----------------------------------------------|
B----------------------------------------------|
G-------5-5-5-5-------7-7-7-7b-----------------| You and me
D--2-2--5-5-5-5--5-5--7-7-7-7b-----------------| We were meant to be
A--2-2--3-3-3-3--5-5--5-5-5-5------------------|
E--0-0-----------3-3---------------------------|
E-----------------------------------------------|
B-----------------------------------------------|
G-------5-5-5-5-------7-7-7-7b------------------| Together
D--2-2--5-5-5-5--5-5--7-7-7-7b------------------| Forever
A--2-2--3-3-3-3--5-5--5-5-5-5-------------------|
E--0-0-----------3-3----------------------------|
OUTRO WITH SOLO
GUITAR 1
E----------------------------------------------|
B----------------------------------------------|
G-------5-5-5-5-------7-7-7-7b-----------------| You and me
D--2-2--5-5-5-5--5-5--7-7-7-7b-----------------| We were meant to be
A--2-2--3-3-3-3--5-5--5-5-5-5------------------|
E--0-0-----------3-3---------------------------|
E-----------------------------------------------|
B-----------------------------------------------|
G-------5-5-5-5-------7-7-7-7b------------------| Together
D--2-2--5-5-5-5--5-5--7-7-7-7b------------------| Forever
A--2-2--3-3-3-3--5-5--5-5-5-5-------------------|
E--0-0-----------3-3----------------------------|
E-------------------------------------------|
B-------------------------------------------|
G-------5-5-5-5-------7-7-7-7b--------------|
D--2-2--5-5-5-5--5-5--7-7-7-7b--------------|
A--2-2--3-3-3-3--5-5--5-5-5-5---------------|
E--0-0-----------3-3------------------------|
E-------------------------------------------|
B-------------------------------------------|
G-------5-5-5-5-------7-7-7-7b--------------|
D--2-2--5-5-5-5--5-5--7-7-7-7b--------------|
A--2-2--3-3-3-3--5-5--5-5-5-5---------------|
E--0-0-----------3-3------------------------|
E-------------------------------------------|
B-------------------------------------------|
G-------5-5-5-5-------7-7-7-7b--------------|
D--2-2--5-5-5-5--5-5--7-7-7-7b--------------|
A--2-2--3-3-3-3--5-5--5-5-5-5---------------|
E--0-0-----------3-3------------------------|
E-------------------------------------------|
B-------------------------------------------|
G-------5-5-5-5-------7-7-7-7b--------------|
D--2-2--5-5-5-5--5-5--7-7-7-7b--------------|
A--2-2--3-3-3-3--5-5--5-5-5-5---------------|
E--0-0-----------3-3------------------------|
E-------------------------------------------|
B-------------------------------------------|
G-------5-5-5-5-------7-7-7-7b--------------|
D--2-2--5-5-5-5--5-5--7-7-7-7b--------------|
A--2-2--3-3-3-3--5-5--5-5-5-5---------------|
E--0-0-----------3-3------------------------|
E-------------------------------------------|
B-------------------------------------------|
G-------5-5-5-5-------7-7-7-7b--------------|
D--2-2--5-5-5-5--5-5--7-7-7-7b--------------|
A--2-2--3-3-3-3--5-5--5-5-5-5---------------|
E--0-0-----------3-3------------------------|
END ON :
E-------------------------------------------|
B-------------------------------------------|
G-------------------------------------------|
D--5----------------------------------------|
A--5----------------------------------------|
E--3----------------------------------------|
GUITAR 2 PLAYS WHILE GUITAR 1 PLAYS
This is the beginning of the solo, the whole solo last as long as GUITARE 1 plays OUTRO
E-------------------------------------------|
B--0-0---8-8-8-8--------10-10-10-10---------|
G-------------------7-7---------------------|
D-------------------------------------------|
A-------------------------------------------|
E-------------------------------------------|
E-------------------------------------------|
B--0-0---8-8-8-8----------------------------|
G-------------------7-7-7-7-7-7-------------|
D-------------------------------------------|
A-------------------------------------------|
E-------------------------------------------|




Ваше мнение



Капча