Riff 1
e|---------------------------------------------------------------------------|
B|---------------------------------------------------------------------------|
G|-------5--6----------------------------------------------------------------|
D|----6--5--6--5-------------------------------------------------------------|
A|----6--3--4--5-------------------------------------------------------------|
E|----4--------3-------------------------------------------------------------|
Riff 2
e|---------------------------------------------------------------------------|
B|---------------------------------------------------------------------------|
G|------------------------55555555--66666666---------------------------------|
D|----66666666--33333333--55555555--66666666---------------------------------|
A|----66666666--33333333--33333333--44444444---------------------------------|
E|----44444444--11111111-----------------------------------------------------|
Riff 3
e|---------------------------------------------------------------------------|
B|---------------------------------------------------------------------------|
G|---------88-------------666-8888-------------------------------------------|
D|---6-66--88--55-33--33--666-8888-------------------------------------------|
A|---6-66--66--55-33--33--444-6666-------------------------------------------|
E|---4-44------33-11--11-----------------------------------------------------|
Riff 4
e|---------------------------------------------------------------------------|
B|---------------------------------------------------------------------------|
G|---------------------------------------------------------------------------|
D|---6-66-55--55-33--33-55--55-----------------------------------------------|
A|---6-66-55--55-33--33-55--55-----------------------------------------------|
E|---4-44-33--33-11--11-33--33-----------------------------------------------|
Riff 5
e|---------------------------------------------------------------------------|
B|---------------------------------------------------------------------------|
G|-------------------------------------------5-3-6---------------------------|
D|---66-6--66-6--66-6--656--33-3--33-3--55-5---------------------------------|
A|---66-6--66-6--66-6--666--33-3--33-3--55-5---------------------------------|
E|---44-4--44-4--44-4--444--11-1--11-1--33-3---------------------------------|
Riff 6
e|---------------------------------------------------------------------------|
B|---------------------------------------------------------------------------|
G|---------------------------------------------------------------------------|
D|---6666--8888--6666--8888--------------------------------------------------|
A|---6666--8888--6666--8888--------------------------------------------------|
E|---4444--6666--4444--6666--------------------------------------------------|

Order:
I made a wish on a shooting star once but it's been so long
Never did believe it till you showed up there and proved me wrong
G#
Everyone is here and they all cheer with the end of another day
Riff 1
Riff 2 (palm mute)
It's Friday night everyone's asleep and now we're walking home
Our shadows grow underneath the street lights still they're overgrown
G# F (palm mute)
A perfect end to a perfect night and I feel so alright
Riff 1
Riff 3
Well she makes me feel not too much like anything
That's three times more than I've ever felt before
Riff 3
One AM and I'm too sucked in cause it's
Three days later I can't stop thinking about you
Riff 4
Riff 5
Call up your friends and let's go down to the beach
Bring your stereo and all your favorite CD's
Riff 5
We'll bring all our guitars, sit on top of our cars
And sing the night away just like rock stars
Riff 6
It's wide open everyone's scopin
Hoping to have a night where nothing gets broken
Riff 6
I will believe in you tonight
Or I'll be leaving you tonight
Riff 3
Well she makes me feel not too much like anything
That's three times more than I've ever felt before
Riff 3
One AM and I'm too sucked in cause it's
Three days later I can't stop thinking about you
Riff 6
Riff 1
Well she makes me feel not too much like anything
That's three times more than I've ever felt before
Riff 3 (palm mute)
One AM and I'm too sucked in cause it's
Three days later I can't stop thinking about
Riff 3
Well she makes me feel not too much like anything
That's three times more than I've ever felt before
Riff 3
One AM and I'm too sucked in cause it's
Three days later I can't stop thinking about you




Ваше мнение



Капча