Artist: FM Static
Song: My First Stereo
Album: What are you waiting for?
h=hammer on
p=pull off
/=slide down
Intro:
E------------------------------------------------------------------|
B------------------------------------------------------------------|
G----------2h3-2p0-5---5---3p2h3/0---3---3---3h5-3/2-3---3-3-3p2p0-|
D--3---3-----------5---5-------------3---3-----------3---3---------|
A--3---3-----------3---3-------------1---1-----------1---1---------|
E--1---1-----------------------------------------------------------|x2
Verse1a:
E----------1------------------------------------------------------|
B------------------------------5----------------------------------|
G--------------------------4---------------3---------------3------|
D--------------3-------3---------------3-------3-------3-------3--|
A------3-----------3---------------1---------------1--------------|
E--1--------------------------------------------------------------|x2
Verse1b:
slightly palm muted
E-----------------------------------------------------------------|
B-----------------------------------------------------------------|
G------------------5---5---5---5---3---3---3---3---2-------5------|
D--3---3---3---3---5---5---5---5---3---3---3---3---2-------5------|
A--3---3---3---3---3---3---3---3---1---1---1---1---0-------3------|
E--1---1---1---1--------------------------------------------------|
Pre chorus:
E-----------------------------------------------------------------|
B-----------------------------------------------------------------|
G--3---3---3---3---5---5---5---5---6---6---6---6---3---3---3---3--|
D--3---3---3---3---5---5---5---5---6---6---6---6---3---3---3---3--|
A--1---1---1---1---3---3---3---3---4---4---4---4---1---1---1---1--|
E-----------------------------------------------------------------|
Chorus:
E-----------------------------------------------------------------|
B-----------------------------------------------------------------|
G------------------5---5---5---5---3---3---3---3---3---3---3---3--|
D--3---3---3---3---5---5---5---5---3---3---3---3---3---3---3---3--|
A--3---3---3---3---3---3---3---3---1---1---1---1---1---1---1---1--|
E--1---1---1---1--------------------------------------------------|
E-----------------|
B-----------------|
G--2-------5------|
D--2-------5------|
A--0-------3------|
Second Ending E-----------------|
Intro
Verse 2a:
slightly palm muted
E-----------------------------------------------------------------|
B-----------------------------------------------------------------|
G----------------------------------3-3-3-3-3-3-3-3-3-3-3-3-3-3-3-3|
D--3-3-3-3-3-3-3-3-3-3-3-3-3-3-3-3-3-3-3-3-3-3-3-3-3-3-3-3-3-3-3-3|
A--3-3-3-3-3-3-3-3-3-3-3-3-3-3-3-3-1-1-1-1-1-1-1-1-1-1-1-1-1-1-1-1|
E--1-1-1-1-1-1-1-1-1-1-1-1-1-1-1-1--------------------------------|
E----------------|
B----------------|
G-3---3---3------|
D-3---3---3------|
A-1---1---1------|
second ending E----------------|
Verse 2b:
E-----------------------------------------------------------------|
B-----------------------------------------------------------------|
G----------------------------------5---5---5---5---5---5---5---5--|
D--3---3---3---3---3---3---3---3---5---5---5---5---5---5---5---5--|
A--3---3---3---3---3---3---3---3---3---3---3---3---3---3---3---3--|
E--1---1---1---1---1---1---1---1----------------------------------|
E-----------------|
B-----------------|
G--2-------5------|
D--2-------5------|
A--0-------3------|
second ending E-----------------|
Pre Chorus x2
Chorus x2
Guitar Solo:
E------------------------------------------------|
B-----8-10h11p10--------------8-10h11p10---------|
G--10----------------------10--------------------|
D------------------------------------------------|
A------------------------------------------------|
E------------------------------------------------|
E-----------------------1-----------------|
B-----8-10h11p10---11---------11-10h11p10-|
G--10-------------------------------------|
D-----------------------------------------|
A-----------------------------------------|
E-----------------------------------------|
E-------------1--------------------13-------|
B-----8-10h11--------------8-10h11----------|
G--10-------------------10------------------|
D-------------------------------------------|
A-------------------------------------------|
E-------------------------------------------|
E-------------13---14---15---14---13-----------------|
B-----8-10h11--------------------------14---13-------|
G--10------------------------------------------------|
D----------------------------------------------------|
A----------------------------------------------------|
E----------------------------------------------------|
Verse 1a x2
Chorus
Chorus again with guitar solo in background




Ваше мнение



Капча