Artist: FM Static
Song: Hey Now
Tabbed by: Jordan Boesch
Intro
--------------------------------------------------------
--------------------------------------------------------
--------------------------------------------------------
0-0-4-0-4/7-7-9-7--0-4-0-4/5-5-4-4----------------------
--------------------------------------------------------
--------------------------------------------------------
--------------------------------------------------------
--------------------------------------------------------
--------------------------------------------------------
0-0-4-0-4/7-7-9-7--0-4-0-4/5-4-4/5-4--------------------
--------------------------------------------------------
--------------------------------------------------------
(REPEAT)
Verse/Chorus
I met you at the club that night where i was spinnin' records...
--------------------------------------------------------------
--------------------------------------------------------------
--7------------------------------------4----------------------
--7---------------4--------------------4---------------7------
--5---------------4--------------------2---------------7------
------------------2------------------------------------5------
pretty much the same throughout the whole song just different
strumming, except this one part... (below)
...theres just, something that happens when you walk into the room
-----------------------------------------------------------------------
-----------------------------------------------------------------------
------------------77777777----------------------44444444---------------
------------------77777777------44444444--------44444444-------5555555-
------------------55555555------44444444--------22222222-------5555555-
--------------------------------22222222-----------------------3333333-
this is also at the end of the chorus where it changes to 355xxx instead of ending with 577xxx




Ваше мнение



Капча