Rebels of the Sacred Heart by Flogging Molly
Tabbed by Vulgar101.com
I attached the lyrics with all the corresponding chord changes
if you find the tab a bit confusing/overwhelming. Just listen
to the song for the rhythm. for the most part there are just
3 different progressions, it's just that they are either picked
or strummed in several different ways throughout the song.

E||--0----------------|--0----------------|--3--------2--------|
B||--2----------------|--2----------------|--0--------3--------|
G||--2----------------|--2----------------|--0--------2--------|
D||--2----------------|--2----------------|--0--------0--------|
A||--0----------------|--0----------------|--2-----------------|
E||-------------------|-------------------|--3-----------------|

--0----------------|--3--------2--------|--2------------3----|
--2----------------|--0--------3--------|--3------------3----|
--2----------------|--0--------2--------|--2------------0----|
--2----------------|--0--------0--------|--0------------0----|
--0----------------|--2-----------------|--------------------|
-------------------|--3-----------------|--------------------|

--2------------3----|--2------------0----|--2----------------|
--3------------3----|--3------------2----|--3----------------|
--2------------0----|--2------------2----|--2----------------|
--0------------0----|--0------------2----|--0----------------|
--------------------|--------------------|-------------------|
--------------------|--------------------|-------------------|

--2------------3----|--2------------3----|--2------------0----|
--3------------3----|--3------------3----|--3------------2----|
--2------------0----|--2------------0----|--2------------2----|
--0------------0----|--0------------0----|--0------------2----|
--------------------|--------------------|--------------------|
--------------------|--------------------|--------------------|

--2----------------|--3----------------|--2----------------|--3----------------|
--3----------------|--3----------------|--3----------------|--3----------------|
--2----------------|--0----------------|--2----------------|--0----------------|
--0----------------|-------------------|--0----------------|-------------------|
-------------------|--2----------------|--0----------------|--2----------------|
-------------------|--3----------------|-------------------|--3----------------|

--0----------------|--2----2----0----0----|--3----3----2----2----|
--2----------------|--3----3----2----2----|--3----3----3----3----|
--2----------------|--2----2----2----2----|--0----0----2----2----|
--2----------------|--0----0----2----2----|--0----0----0----0----|
--0----------------|--0----0----0----0----|--2----2----0----0----|
-------------------|----------------------|--3----3--------------|

--2----2----0----0----|--2----------------|--2----2----0----0----|
--3----3----2----2----|--3----------------|--3----3----2----2----|
--2----2----2----2----|--2----------------|--2----2----2----2----|
--0----0----2----2----|--0----------------|--0----0----2----2----|
--0----0----0----0----|--0----------------|--0----0----0----0----|
----------------------|-------------------|----------------------|

--3----3----2----2----|--2----2----0----0----|--2----------------|
--3----3----3----3----|--3----3----2----2----|--3----------------|
--0----0----2----2----|--2----2----2----2----|--2----------------|
--0----0----0----0----|--0----0----2----2----|--0----------------|
--2----2----0----0----|--0----0----0----0----|--0----------------|
--3----3--------------|----------------------|-------------------|

--3--------2--------|--3--------2--------|--0--------2--------|
--0--------3--------|--0--------3--------|--2--------3--------|
--0--------2--------|--0--------2--------|--2--------2--------|
--0--------0--------|--0--------0--------|--2--------0--------|
--2-----------------|--2-----------------|--0-----------------|
--3-----------------|--3-----------------|--------------------|

--2----------------|--3--------2--------|--3--------2--------|--0--------|
--3----------------|--0--------3--------|--0--------3--------|--2--------|
--2----------------|--0--------2--------|--0--------2--------|--2--------|
--0----------------|--0--------0--------|--0--------0--------|--2--------|
--0----------------|--2-----------------|--2-----------------|--0--------|
-------------------|--3-----------------|--3-----------------|-----------|

--2--2----2----2----2--|----3----3----2----2--|----3----3----2----2--|
--3--3----3----3----3--|----0----0----3----3--|----0----0----3----3--|
--2--2----2----2----2--|----0----0----2----2--|----0----0----2----2--|
--0--0----0----0----0--|----0----0----0----0--|----0----0----0----0--|
-----------------------|----2----2------------|----2----2------------|
-----------------------|----3----3------------|----3----3------------|

----0----0----2----2--|--2--2----2----2----2--|----3----3----2----2--|
----2----2----3----3--|--3--3----3----3----3--|----0----0----3----3--|
----2----2----2----2--|--2--2----2----2----2--|----0----0----2----2--|
----2----2----0----0--|--0--0----0----0----0--|----0----0----0----0--|
----0----0------------|-----------------------|----2----2------------|
----------------------|-----------------------|----3----3------------|

----3----3----2----2--|----0----0----2----2--|--0----0----0----0----|
----0----0----3----3--|----2----2----3----3--|--2----2----2----2----|
----0----0----2----2--|----2----2----2----2--|--2----2----2----2----|
----0----0----0----0--|----2----2----0----0--|--2----2----2----2----|
----2----2------------|----0----0------------|--0----0----0----0----|
----3----3------------|----------------------|----------------------|

--3----3----2----2----|--0----0----0----0----|--3----3----2----2----|
--0----0----3----3----|--2----2----2----2----|--0----0----3----3----|
--0----0----2----2----|--2----2----2----2----|--0----0----2----2----|
--0----0----0----0----|--2----2----2----2----|--0----0----0----0----|
--2----2----0----0----|--0----0----0----0----|--2----2----0----0----|
--3----3--------------|----------------------|--3----3--------------|

--2----------------|--3--------2--------|--3--------2--------|--0--------|
--3----------------|--0--------3--------|--0--------3--------|--2--------|
--2----------------|--0--------2--------|--0--------2--------|--2--------|
--0----------------|--0--------0--------|--0--------0--------|--2--------|
--0----------------|--2-----------------|--2-----------------|--0--------|
-------------------|--3-----------------|--3-----------------|-----------|

--3----------------|--2----------------|--3----------------|--0----------------|
--0----------------|--3----------------|--0----------------|--2----------------|
--0----------------|--2----------------|--0----------------|--2----------------|
--0----------------|--0----------------|--0----------------|--2----------------|
--2----------------|-------------------|--2----------------|--0----------------|
--3----------------|-------------------|--3----------------|-------------------|

--2----2----0----0----|--3----3----2----2----|--2----2----0----0----|
--3----3----2----2----|--0----0----3----3----|--3----3----2----2----|
--2----2----2----2----|--0----0----2----2----|--2----2----2----2----|
--0----0----2----2----|--0----0----0----0----|--0----0----2----2----|
------------0----0----|--2----2--------------|------------0----0----|
----------------------|--3----3--------------|----------------------|

--2----------------|--2----2----0----0----|--3----3----2----2----|
--3----------------|--3----3----2----2----|--0----0----3----3----|
--2----------------|--2----2----2----2----|--0----0----2----2----|
--0----------------|--0----0----2----2----|--0----0----0----0----|
-------------------|------------0----0----|--2----2--------------|
-------------------|----------------------|--3----3--------------|

--2--------0--------|--2----------------|--3--------2--------|
--3--------2--------|--3----------------|--0--------3--------|
--2--------2--------|--2----------------|--0--------2--------|
--0--------2--------|--0----------------|--0--------0--------|
-----------0--------|--0----------------|--2-----------------|
--------------------|-------------------|--3-----------------|

--3--------2--------|--0--------2--------|--2----------------|
--0--------3--------|--2--------3--------|--3----------------|
--0--------2--------|--2--------2--------|--2----------------|
--0--------0--------|--2--------0--------|--0----------------|
--2-----------------|--0-----------------|--0----------------|
--3-----------------|--------------------|-------------------|

--3--------2--------|--3--------2--------|--0--------|--2--2----2----2----2--|
--0--------3--------|--0--------3--------|--2--------|--3--3----3----3----3--|
--0--------2--------|--0--------2--------|--2--------|--2--2----2----2----2--|
--0--------0--------|--0--------0--------|--2--------|--0--0----0----0----0--|
--2-----------------|--2-----------------|--0--------|-----------------------|
--3-----------------|--3-----------------|-----------|-----------------------|

----3----3----2----2--|----3----3----2----2--|----0----0----2----2--|
----0----0----3----3--|----0----0----3----3--|----2----2----3----3--|
----0----0----2----2--|----0----0----2----2--|----2----2----2----2--|
----0----0----0----0--|----0----0----0----0--|----2----2----0----0--|
----2----2------------|----2----2------------|----0----0------------|
----3----3------------|----3----3------------|----------------------|

--2--2----2----2----2--|----3----3----2----2--|----3----3----2----2--|
--3--3----3----3----3--|----0----0----3----3--|----0----0----3----3--|
--2--2----2----2----2--|----0----0----2----2--|----0----0----2----2--|
--0--0----0----0----0--|----0----0----0----0--|----0----0----0----0--|
-----------------------|----2----2------------|----2----2------------|
-----------------------|----3----3------------|----3----3------------|

----0----0----2----2--|--0----0----0----0----|--3----3----2----2----|
----2----2----3----3--|--2----2----2----2----|--0----0----3----3----|
----2----2----2----2--|--2----2----2----2----|--0----0----2----2----|
----2----2----0----0--|--2----2----2----2----|--0----0----0----0----|
----0----0------------|--0----0----0----0----|--2----2----0----0----|
----------------------|----------------------|--3----3--------------|

--0----0----0----0----|--3----3----2----2----|--2----------------|
--2----2----2----2----|--0----0----3----3----|--3----------------|
--2----2----2----2----|--0----0----2----2----|--2----------------|
--2----2----2----2----|--0----0----0----0----|--0----------------|
--0----0----0----0----|--2----2----0----0----|--0----------------|
----------------------|--3----3--------------|-------------------|

--3--------2--------|--3--------2--------|--0--------|--3----------------|
--0--------3--------|--0--------3--------|--2--------|--0----------------|
--0--------2--------|--0--------2--------|--2--------|--0----------------|
--0--------0--------|--0--------0--------|--2--------|--0----------------|
--2-----------------|--2-----------------|--0--------|--2----------------|
--3-----------------|--3-----------------|-----------|--3----------------|

--2----------------|--3----------------|--0----------------|
--3----------------|--0----------------|--2----------------|
--2----------------|--0----------------|--2----------------|
--0----------------|--0----------------|--2----------------|
-------------------|--2----------------|--0----------------|
-------------------|--3----------------|-------------------|

--2----2----0----0----|--3----3----2----2----|--2----2----0----0----|
--3----3----2----2----|--0----0----3----3----|--3----3----2----2----|
--2----2----2----2----|--0----0----2----2----|--2----2----2----2----|
--0----0----2----2----|--0----0----0----0----|--0----0----2----2----|
------------0----0----|--2----2--------------|------------0----0----|
----------------------|--3----3--------------|----------------------|

--2----------------|--2----2----0----0----|--3----3----2----2----|
--3----------------|--3----3----2----2----|--0----0----3----3----|
--2----------------|--2----2----2----2----|--0----0----2----2----|
--0----------------|--0----0----2----2----|--0----0----0----0----|
-------------------|------------0----0----|--2----2--------------|
-------------------|----------------------|--3----3--------------|

--2--------0--------|--2----------------|--0----------------|
--3--------2--------|--3----------------|--2----------------|
--2--------2--------|--2----------------|--2----------------|
--0--------2--------|--0----------------|--2----------------|
-----------0--------|-------------------|--0----------------|
--------------------|-------------------|-------------------|

--3--------2--------|--0----------------|--3--------2--------|
--0--------3--------|--2----------------|--0--------3--------|
--0--------2--------|--2----------------|--0--------2--------|
--0--------0--------|--2----------------|--0--------0--------|
--2-----------------|--0----------------|--2-----------------|
--3-----------------|-------------------|--3-----------------|

--2----------------|--3--------2--------|--3--------2--------|
--3----------------|--0--------3--------|--0--------3--------|
--2----------------|--0--------2--------|--0--------2--------|
--0----------------|--0--------0--------|--0--------0--------|
-------------------|--2-----------------|--2-----------------|
-------------------|--3-----------------|--3-----------------|

--0--------2--------|--2----------------|--3--------2--------|
--2--------3--------|--3----------------|--0--------3--------|
--2--------2--------|--2----------------|--0--------2--------|
--2--------0--------|--0----------------|--0--------0--------|
--0--------0--------|-------------------|--2-----------------|
--------------------|-------------------|--3-----------------|

--3--------2--------|--0--------2--------|--2----------------|
--0--------3--------|--2--------3--------|--3----------------|
--0--------2--------|--2--------2--------|--4----------------|
--0--------0--------|--2--------0--------|--4----------------|
--2-----------------|--0-----------------|-------------------|
--3-----------------|--------------------|-------------------|

--2----------------|--3----------------|--0----------------|
--3----------------|--0----------------|--2----------------|
--2----------------|--0----------------|--2----------------|
--0----------------|--0----------------|--2----------------|
-------------------|--2----------------|--0----------------|
-------------------|--3----------------|-------------------|

--2----2----0----0----|--3----3----2----2----|--2--------0--------|
--3----3----2----2----|--0----0----3----3----|--3--------2--------|
--2----2----2----2----|--0----0----2----2----|--2--------2--------|
--0----0----2----2----|--0----0----0----0----|--0--------2--------|
------------0----0----|--2----2--------------|-----------0--------|
----------------------|--3----3--------------|--------------------|

--2----------------|--0----------------|--3--------2--------|
--3----------------|--2----------------|--0--------3--------|
--2----------------|--2----------------|--0--------2--------|
--0----------------|--2----------------|--0--------0--------|
--0----------------|--0----------------|--2-----------------|
-------------------|-------------------|--3-----------------|

--0----------------|--3--------2--------|--2------------3----|
--2----------------|--0--------3--------|--3------------3----|
--2----------------|--0--------2--------|--2------------0----|
--2----------------|--0--------0--------|--0------------0----|
--0----------------|--2-----------------|--------------------|
-------------------|--3-----------------|--------------------|

--2------------3----|--2------------0----|--2----------------|
--3------------3----|--3------------2----|--3----------------|
--2------------0----|--2------------2----|--2----------------|
--0------------0----|--0------------2----|--0----------------|
--------------------|--------------------|-------------------|
--------------------|--------------------|-------------------|

--2------------3----|--2------------3----|--2------------0----|
--3------------3----|--3------------3----|--3------------2----|
--2------------0----|--2------------0----|--2------------2----|
--0------------0----|--0------------0----|--0------------2----|
--------------------|--------------------|--------------------|
--------------------|--------------------|--------------------|

--2----------------|--3----------------|--2----------------|--3----------------|
--3----------------|--3----------------|--3----------------|--3----------------|
--2----------------|--0----------------|--2----------------|--0----------------|
--0----------------|-------------------|--0----------------|-------------------|
-------------------|--2----------------|--0----------------|--2----------------|
-------------------|--3----------------|-------------------|--3----------------|

--0----------------|--2----2----0----0----|--3----3----2----2----|
--2----------------|--3----3----2----2----|--3----3----3----3----|
--2----------------|--2----2----2----2----|--0----0----2----2----|
--2----------------|--0----0----2----2----|--0----0----0----0----|
--0----------------|--0----0----0----0----|--2----2----0----0----|
-------------------|----------------------|--3----3--------------|

--2----2----0----0----|--2----------------|--2----2----0----0----|
--3----3----2----2----|--3----------------|--3----3----2----2----|
--2----2----2----2----|--2----------------|--2----2----2----2----|
--0----0----2----2----|--0----------------|--0----0----2----2----|
--0----0----0----0----|--0----------------|--0----0----0----0----|
----------------------|-------------------|----------------------|

--3----3----2----2----|--2--------0--------|--2----------------|
--3----3----3----3----|--3--------2--------|--3----------------|
--0----0----2----2----|--2--------2--------|--2----------------|
--0----0----0----0----|--0--------2--------|--0----------------|
--2----2----0----0----|--0--------0--------|--0----------------|
--3----3--------------|--------------------|-------------------|

--3----------------|--2----------------|--3----------------|--0----------------|
--0----------------|--3----------------|--0----------------|--2----------------|
--0----------------|--2----------------|--0----------------|--2----------------|
--0----------------|--0----------------|--0----------------|--2----------------|
--2----------------|-------------------|--2----------------|--0----------------|
--3----------------|-------------------|--3----------------|-------------------|

--2----2----0----0----|--3----3----2----2----|--2----2----0----0----|
--3----3----2----2----|--0----0----3----3----|--3----3----2----2----|
--2----2----2----2----|--0----0----2----2----|--2----2----2----2----|
--0----0----2----2----|--0----0----0----0----|--0----0----2----2----|
------------0----0----|--2----2--------------|------------0----0----|
----------------------|--3----3--------------|----------------------|

--2----------------|--2----2----0----0----|--3----3----2----2----|
--3----------------|--3----3----2----2----|--0----0----3----3----|
--2----------------|--2----2----2----2----|--0----0----2----2----|
--0----------------|--0----0----2----2----|--0----0----0----0----|
-------------------|------------0----0----|--2----2--------------|
-------------------|----------------------|--3----3--------------|

--2----2----0----0----|--2----------------|--2--------0--------|
--3----3----2----2----|--3----------------|--3--------2--------|
--2----2----2----2----|--2----------------|--2--------2--------|
--0----0----2----2----|--0----------------|--0--------2--------|
------------0----0----|-------------------|-----------0--------|
----------------------|-------------------|--------------------|

--3--------2--------|--2--------0--------|--2--------0--------|
--0--------3--------|--3--------2--------|--3--------2--------|
--0--------2--------|--2--------2--------|--2--------2--------|
--0--------0--------|--0--------2--------|--0--------2--------|
--2-----------------|--0--------0--------|-----------0--------|
--3-----------------|--------------------|--------------------|

--3--------2--------|--2--------0--------|--2----------------||
--0--------3--------|--3--------2--------|--3----------------||
--0--------2--------|--2--------2--------|--2----------------||
--0--------0--------|--0--------2--------|--0----------------||
--2-----------------|-----------0--------|-------------------||
--3-----------------|--------------------|-------------------||
Intro Chord - A picked
A
Now I`m aimin' for heaven
G D
But probably wind up down in hell
A G D
Where upon this alter I will hang my guilt ridden head
D G D
But it`s time I`ll take before I begin
G D A D
Three sheets to the wind, Three sheets to the wind
D G D
But it`s time I`ll take before I begin
G D A D
Three sheets to the wind, Three sheets to the wind
G D G A
Rebels are we, though heavy our hearts shall always be
D A G D
Ah, no ball or chain no prison shall keep
D A D
We`re the rebels of the sacred heart
D A G D
I said no ball or chain no prison shall keep
D A D
We`re the rebels of the sacred heart
D G D G D A D D G D G D A
D G D
Terrified of the open road
G D A D
Yeah, where it leads ya never know
D G D
But rest assured he`ll be on you back
G D A D
Yeah, the Holy Ghost through his tounges in black
A G D
As the band dog howls and the young girl cries
A G D
The blessed virgin in her proud dad`s eye
D G D
The albatross hangin' round your neck
G D A D
Is the cross you bare for your sins he bleeds
G D G A
Rebels are we, though heavy our hearts shall always be
D A G D
Ah, no ball or chain no prison shall keep
D A D
We`re the rebels of the sacred heart
D A G D
Ah, no ball or chain no prison shall keep
D A D
We`re the rebels of the sacred heart
D G D G D A D D G D G D A
D G D G D
Genuflect all you refugees who fled the land
A D
Now on guilt you kneel
D G D
And say a prayer for those left behind
G D A D
From beyond the pale to the Northern sky
A G D
So you saved your shillins and your last six pence
A G D
Cause in God`s name they built a barbed wire fence
D G D
Be glad you sailed for a better day
G D A D
But don`t forget there`ll be hell to pay
G D G A
Rebels are we, though heavy our hearts shall always be
D A G D
Ah, no ball or chain no prison shall keep
D A D
We`re the rebels of the sacred heart
D A G D
I said no ball or chain no prison shall keep
D A D
We`re the rebels of the sacred heart
Break
A G D A G D D G D G D A D D G D G D A D
B D G A
Reserrection no protection all things life must be
D A G D
Ah no ball or chain no prison shall keep
D A D
We`re the rebels of the sacred heart
Slows back down like the beginning
A G D
Now bless me father for I have sinned
A G D
But it`s the same old story again and again and again
D G D
Ah well, such is the bread of an everyday life
G D A D
From mornin' to noon to this shadowless-night
D G D
Ah well, such is the bread of an everyday life
G D A D
From mornin' to noon to this shadowless-night
G D G A
Rebels are we, though heavy our hearts shall always be
D A G D
Ah, no ball or chain no prison shall keep
D A D
We`re the rebels of the sacred heart
D A G D
I said no ball or chain no prison shall keep
D A D
We`re the rebels of the sacred heart
G D G A
Rebels are we, though heavy our hearts shall always be
D A G D
Ah said no ball or chain no prison shall keep
D A D
We`re the rebels of the sacred heart
D A G D
Ah said no ball or chain no prison shall keep
D A D
We`re the rebels of the sacred heart
D A G D
Ah said no ball or chain no prison shall keep
D A D A G D
We`re the rebels of the sacred heart
D A D
We`re the rebels of the sacred heart




Ваше мнение



Капча