Song:Far away boys
Album:Swagger
Band:Flogging Molly
Email:[email protected]

Verse 1
d d u d d u d d u d d u d d u d d u d d u d d u
e|-0--0-0-0--0-0-0--0-0-0--0-0-0--0-0-0--0-0-0--0-0-0--0-0-|
B|-0--0-0-2--2-2-0--0-0-2--2-2-0--0-0-2--2-2-1--1-1-0--0-0-|
G|-1--1-1-2--2-2-1--1-1-2--2-2-1--1-1-2--2-2-2--2-2-1--1-1-|
D|-2--2-2-2--2-2-2--2-2-2--2-2-2--2-2-2--2-2-2--2-2-2--2-2-|
A|-2--2-2-0--0-0-2--2-2-0--0-0-2--2-2-0--0-0-0--0-0-2--2-2-|
E|-0--0-0-0--0-0-0--0-0-0--0-0-0--0-0-0--0-0-0--0-0-0--0-0-|
Chorus - Play the same as verse 1

Verse2
d d u d d u d d u d d u d d u d d u d d u d d u
|-0--0-0-0--0-0-0--0-0-2--2-2-0--0-0-0--0-0-0--0-0-0--0-0-|
|-0--0-0-2--2-2-0--0-0-4--4-4-0--0-0-2--2-2-1--1-1-0--0-0-|
|-1--1-1-2--2-2-1--1-1-4--4-4-1--1-1-2--2-2-2--2-2-1--1-1-|
|-2--2-2-2--2-2-2--2-2-4--4-4-2--2-2-2--2-2-2--2-2-2--2-2-|
|-2--2-2-0--0-0-2--2-2-2--2-2-2--2-2-0--0-0-0--0-0-2--2-2-|
|-0--0-0-0--0-0-0--0-0-2--2-2-0--0-0-0--0-0-0--0-0-0--0-0-|
Solo on guitar(play twice.whats in () play 2nd time only)
|----------------------------------------------------------------|
|----------------------------------------------------------------|
|-----1----1---------1----4------1----1--------------------------|
|-2-4----4---4-2---4---------2-4----4----4-2----4-2----(4~---2~)-|
|----------------------------------------------------------------|
|----------------------------------------------------------------|

Very easy song to play.You'l have to figure out how many times
to play each part but its easy to find.Going to see them in 2 months
Comments to email




Ваше мнение



Капча