I have to give partial credit to this tab to:Mat Mcmanus (raggerx51,[email protected])
for the main riff on the chorus. Anyways here is the tab:
Chords played along with organ and throughout the verses:
G: 320033
Cadd9: x32033
Prechorus Riff (Played with Volume Swell):
e|----------------------------------------------------------------------------------------------|
B|-15-15-15-15-15-15-15-17-13-13-13-13-13-13-13-15-12-12-12-12-12-12-12-13-11-11-11-11-11-11-11-|
G|----------------------------------------------------------------------------------------------|
D|----------------------------------------------------------------------------------------------|
A|----------------------------------------------------------------------------------------------|
E|----------------------------------------------------------------------------------------------|
Chorus Riff:
e|--------------------------------|------12-15-12----------------------|
B|-12--------12----------12h15p12-|-12-15--------15-12-13-12-----------|
G|---14-12-14---14-12-14----------|-------------------------14-12---12-|
D|--------------------------------|-------------------------------14---|
A|--------------------------------|------------------------------------|
E|--------------------------------|------------------------------------|
Chords Played With Chorus Verse:
Bm/G: 20033
Gsus4/E: 003013
Lyrics:
Your ship is high
And I don't know if it'll make it down
But I'm gonna try to slip inside
The mind of a clown
Follow me
Thinking I can save them
Follow me
Thinking I can turn a frown...into a smile
Into a smile
Into a smile
Who-oh
(Repeat 7 more times)
Into a smile
Your ship is high
And I don't know if it'll make it down
But I'm gonna try to slip inside
The mind of a clown
Into a smile
Into a smile
Into a smile
Into a smile
Yeah, yeah....
That's it.
AIM: dxlogan187
email:[email protected]


Ваше мнение



Капча