verses:

G ------------------------------------------------------------------|
D ------------------------------------------------------------------|
A --5-5-5-5-------------------------5-5-5-5-------------------------|
E ----------5-5-5-5-7-7-7-7-5-5-5-5---------5-5-5-5-7-7-7-7-6-6-6-6-|

pre-chorus:

G ----------------------------------------------------|
D ----------------------------------------------------|
A --5-5-5-5-5-5---------------------------------------|
E --------------5-5-5-5-5-5--7-7-7-7-7-7-5-5-5-5-5-5--|

chorus:

G ------------------------------------------------------------------|
D ------------------------------------------------------------------|
A --5-5-5-5-------5-5-5-5--------5-5-5-5--------5-5-5-5-------------|
E ---------5-5-5-5--------5-5-5-5--------5-5-5-5------------6-6-6-6-|

bridge:

G -------------------------------|
D -------------------------------|
A --5-5-5-5----------------------|
E ----------7-7-7-7--5-5-5-5-----|


Ваше мнение



Капча