I saw these guys in concert last night (Feb. 8) this is how Cory plays it.
E:-----0-------0------0-------0-------------------
B:------------------------------------------------
G:-1/2----1/2-----1/2----1/2----------------------
D:------------------------------------------------
A:------------------------------------------------
E:------------------------------------------------

E:-----12121212----9999-----------------------------
B:--999---------999-----999-1212-9----999-1212-9----
G:--------------------------------11-9----------11-9
D:--------------------------------------------------
A:--------------------------------------------------
E:--------------------------------------------------
That plays for the verse then the destorted chorus chords are:
(C#,F#,A)

E:4 |2 |5
B:5 |3 |5
G:6 |4 |6
D:6 |4 |7
A:4 |2 |7
E:x |x |5


Ваше мнение



Капча