WORLD TURNING
written by Lindsey Buckingham & Christine McVie
performed by Fleetwood Mac
from the album Fleetwood Mac
transcribed by Joshua Shank

note: I haven't tabbed out the solo yet. Additions/corrections are welcome.
Tuning=DADGBe (drop D)
legend:
b&r=bend note and release it
b=bend

Verse:
e|----------------------|
B|----------------------|
G|---4-2-4---2-2b&r0----|
D|-0-------0---------3b-|
A|----------------------|
D|----------------------|

Chorus: (the chorus is separated into 3 riffs that sound
very similar
e|-------------------------------|
B|-------3-------3-3---------3---|
G|---0-------0-------------0-----|
D|-----2-------0---3b&r0---------|
A|-3-------2-------------3-------|
D|-----------------------------0-|

e|--------------------------|
B|---------3----------3---3-|
G|---0---0----------0-------|
D|---------3b&r0------0---0-|
A|-3---2---------3b---------|
D|----------------------0---|

e|-------------------------------|
B|-------3-------3-3---------3---|
G|---0-------0-------------0-----|
D|-----2-------0---3b&r0---------|
A|-3-------2-------------3-------|
D|-----------------------------0-|

e|------------------------------|
B|---3--------------------3---3-|
G|--------------------0---------|
D|-0---3b&r0----------------0---|
A|-----------3b&r0--------------|
D|-----------------3b---0-------|

Lyrics:
Everybody's trying to say I'm wrong
I just wanna be back where I belong

World turnin'
I gotta get my feet back on the ground
World turnin'
Everybody's got me down
Maybe I'm wrong but who's to say what's right
I need somebody to help me thru the night




Ваше мнение



Капча