Song: When i see you again
Band: Fleetwood mac
Album: Tango in the Night
Tabbed: Daniel Thomas ([email protected])
Tuning E A D G B E

Chords used:
D: xx0232
A: x02220
E: xx9997 (a regluar E chord sounds good too)

VERSE riff:
e|---------0-------|---------0-------|---------0-------|---------0--------|
B|-----0-------0---|-----0-------0---|-----0-------0---|-----0-------0----|
G|---2---2---2---2-|---2---2---2---2-|---2---2---2---0-|---2---2---2---2--|
D|-----------------|-----------------|-----------------|------------------|
A|-0---------------|-0---------------|-----------------|------------------|
E|-----------------|-----------------|-0---------------|-0----------------|

CHORUS riff:
e|---0---0-----|---0---0-----|---0---0------|
B|-----0---0---|-----0---0---|-----0---0----|
G|-----------2-|-----------2-|-----------2--|
D|-------------|-------------|-0------------|
A|-2-----------|-4-----------|--------------|
E|-------------|-------------|--------------|

BRIDGE riff:
(this isn’t in the song but it fits with the rest and sounds right.
Do whatever is in between the bars twice before you go on to the next one.)
D A D E
|---------2-------|-----------------|---------2-------|-----------------|
|-----3-------3---|---------3-------|-----3-------3---|---------9-------|
|---2---2---2---2-|-----3-------3---|---2---2---2---2-|-----9-------9---|
|-0---------------|---3---3---3---3-|-0---------------|---9---9---9---9-|
|-----------------|-0---------------|-----------------|-7---------------|
|-----------------|-----------------|-----------------|-----------------|




Ваше мнение



Капча