Date: Thu, 15 Jan 1998 09:27:27 EST
From: RZarou
Subject: Fleetwood Mac: Tusk
Tusk
Fleetwood Mac
"The Dance"
By RZarou
On my amp the settings are:
distortion-10
Voice-0
Volume-3
Bass-10
Treble-10
Chords Used (you must play them this way to get the right sound)
Dm Cm Am Fm A#m
E--5----3----0----8----1*
B--6----4----1----9----2*
G--7----5----2---10----3*
D--7----5----2---10----3*
A-----------------------*
E-----------------------*
Verse1
Dm
Dm
Why don't you ask if he's going to stay?
Dm Dm
Why don't you ask if he's going away?
A#m Dm
Verse2
Dm
Dm
Why don't you tell me what's going on
Dm
Why don't you tell me who's on the phone
A#m Dm
OOOOHHHH
(played only by a bass- I hope i tabbed this right, don't know much
about basses. This continues through the rest of the song)
G-----------------------*---------------------*
D-----------------------*---------------------*
A--5--3--0--3--5--0--0-3*--0--3--5--8---5--3-5*
E-----------------------*---------------------*
riff 3
E--5--5-3--
B--6--6-4
G--7--7-5-
D--7--7-5
A---------------
E---------------
Verse2
Dm
Dm
Why don't you ask what's going on
Dm
Why don't you ask the latest on his throne
A#m Dm
Chorus
Don't Say that you love me
Dm Dm Cm Dm
Dm Cm Dm
Dm Cm Dm Fm
Dm Cm Dm
Dm Cm Dm Fm
Dm Cm Dm Fm
Just say that you want me
Tusk!!!
email any changes to [email protected]




Ваше мнение



Капча