Song: Tusk
Band: Fleetwood mac:
Album: The Dance
Tabbed: Daniel Thomas ([email protected])
Tuning E A D G B E

Chords:
Dm: x5776x
G: x5543x
A: x7765x
C: x355xx
G5: 355xxx
A5: 577xxx

Drum intro, then:

Dm x2

Dm
Why don't you ask him if he's going to stay?
Dm G A
Why don't you ask him if he's going away?

Dm
Why don't you tell me what's going on?
Dm G A
Why don't you tell me who's on the phone?

(Bass comes in)

Dm
Why don't you ask him what's going on?
Dm
Why don't you ask him who's the latest
G A
on his throne?

Dm(see riff 1) C G5 C
Don't say that you love me!
A5 Dm(see riff 1) C G5 C
Just tell me that you want me! Yee-haaaa!!!
A5 Dm(see riff 1) C G5 C
Don't say that you love me! Yee-haaaa!!!
A5
Just tell me that you . . .

Riff 1:
e---1---1--0--1---1--0-1---1--0--1--0--1--0-1---1--0--1---1---
b---3---3--1--3---3--1-3---3--1--3--1--3--1-3---3--1--3---3---
g---2---2-----2---2----2---2-----2-----2----2---2-----2---2---
d-------------------------------------------------------------
a-------------------------------------------------------------
e-------------------------------------------------------------

(drum solo)
USC MARCHING BAND COMES IN!

____________repeat 4 times____________
/
/
e---1-||--1--0--1---1--0-1---1--0--1--0--1--0-1-||
b---3-||--3--1--3---3--1-3---3--1--3--1--3--1-3-||
g---2-||--2-----2---2----2---2-----2-----2----2-||
d-----||----------------------------------------||
a-----||----------------------------------------||
e-----||----------------------------------------||

after you play that, play this:

e---1--0--1---1-------------------
b---3--1--3---3-------------------
g---2-----2---2---5-------5-------
d-----------------5---5---5---7---
a-----------------3---5---3---7---
e---------------------3-------5---

For the end, repeat riff 1 and then the chords C G5 C A5 eight times.




Ваше мнение



Капча