#-----------------------------------------------------------------------------#
#-- File created with Instab - http://www.pconline.com/~smcarey/instab.html --#
#-----------------------------------------------------------------------------#
Author/Artist: Fleetwood Mac
Title: The Chain Intro
Album: Mirage Tour Live
Transcribed by: brandon ian jones
Email: [email protected]
This song is in standard tuning, tune your 6th string to drop D and capo on the
2nd fret. This is thumb picking at a brisk tempo!
------------------------------------------------------------------------------|
------------------------------------------------------------------------3v----|
------------------------------------------------------------------------------|
-----0------------0----------------0---------0-------3p0------------0---------|
---------0---3b-----------------------0--3------------------------------------|
-0-------------------0--3b-3b---0----------------0---------3b---0-------------|
------------------------------------------------------------------------------|
--------------------------3v----------------3---------------------3v----------|
-----------------------------------------------2------------------------2-----|
-----0-----3b--3b----0------------------0---------3p0----------0--------------|
-0-3--------------------------0----3----------------------------------0----3b-|
--------0----------------------------------------------3b---0-----------------|
------------------------------------------------------------------1b----------|
--------3--------------3---------------3-------------------3-------------3v---|
-3v--------------------------------------2--------------2---------------------|
----0------3b-3b---0----------------0-------------------0-------------0-------|
---------------------------0---3b------------3p0---------------0--------------|
-------------------------------------------------3b--0------------------------|
--------------------------1----------------------------------3b-----1v--------|
----3--------3v------------------3v-----3--------------------3b-----------3---|
-----------------------------------------------------------------------0------|
-0-----3--0-----------0------0-------0------3p0-----------0------0------------|
------------------------------------------------3p0---------------------------|
-----------------3b---------------------------------3b-0----------------------|
-----------------------------3b-----1-----------------------------------------|
-----------------------------3b-----------3v----------------------------------|
--------------------------------------------------0---------x-----------------|
--0---------0------------0-------0-----0------0------3b--0--------------0-----|
-------3b------------------------------------------------------3--------------|
----------------3b---0----------------------------------------------0---------|
-----------------------------------------------------------------0------------|
-----------------1---------1---1h3---------------------1--------------1h3-----|
-----------------------2--------------------------2----------2----------------|
------0------0-------------0--------0------0---------0-----------0------------|
------------------------------------------------------------------------------|
-0-------0----------0----------0-------0-------0----------0-----------0-------|




Ваше мнение



Капча