Song: Sugar Daddy
Band: Fleetwood mac
Tabbed: Daniel Thomas ([email protected])
Tuning: E A D G B E
A E Bmin
[----0----] [----0----] [----2----]
[----2----] [----0----] [----3----]
[----2----] [----1----] [----4----]
[----2----] [----2----] [----4----]
[----0----] [----2----] [----2----]
[----0----] [----0----] [----X----]
F#min D B
[----2----] [----2----] [----2----]
[----2----] [----3----] [----4----]
[----2----] [----2----] [----4----]
[----4----] [----0----] [----4----]
[----4----] [----0----] [----2----]
[----2----] [----0----] [----X----]
Intro- II: A I E I Bmin I F#min :II
A D F#min D
Well I need a sugar daddy / He could be my friend
A D F#min D
And if I needed a little money/I know he could lend me, lend me a hand
F#min D B D F#min D
But when it comes to love/He'd better leave me alone/'Cause I got you baby
B D
And you give me all the love I need/Yes you give me all the love I need-
A D F#min D
And when I get a little hungry/He could give me all I could eat
A D F#min D
And if I needed whisky/He could serve it to me neat
Refrain
A E Bmin F#min
All that I want is someone to take care of me
A E Bmin F#min
I'm not asking for love / Just a little sympathy
Solo / Guitar solo over verse
A D Bmin D A D Bmin D
And he could pick me up/In a big fancy car/Then I could pretend/I was a big movie star
Intro 1X
A E Bmin F#min
All that I want is someone to take care of me
A E Bmin F#min
I'm not asking for love / Just a little sympathy
A D F#min D Repeat & fade
I'm not asking for love




Ваше мнение



Капча