Song: Songbird
Band: Fleetwood mac
Album: Dreams single 1977
Tabbed: Daniel Thomas ([email protected])
Tuning: E A D G B E (standard)
F C Bflat
[----1----] [----0----] [----1----]
[----1----] [----1----] [----3----]
[----4----] [----0----] [----3----]
[----3----] [----2----] [----3----]
[----3----] [----3----] [----1----]
[----1----] [----0----] [----X----]

Gminor Dminor
[----3----] [----5----]
[----3----] [----6----]
[----3----] [----7----]
[----5----] [----7----]
[----5----] [----5----]
[----3----] [----X----]

Intro- II: F I C :II F I % I

Bflat F Bmin F
For you, there'll be no more crying,/ For you, the sun will be shining,

Gmin Bflat Dmin Bflat F I % I % I % I
And I feel that when I'm with you,/ It's alright, I know it's right

Bflat F Bmin F
To you, I'll give the world/ To you, I'll never be cold

Gmin Bflat Dmin Bflat F I % I % I % I
'Cause I feel that when I'm with you,/ It's alright, I know it's right

C Bflat Dmin
And the songbirds are singing,/ Like they know the score,

Gmin C F I % I
And I love you, I love you, I love you,/ Like never before.

Gmin Bflat Dmin Bflat C F I % I
And I wish you all the love in the world,/ But most of all, I wish it from myself.

C Bflat Dmin
And the songbirds keep singing,/ Like they know the score,

Gmin C F C I C (hold) I
And I love you, I love you, I love you,/ Like never before, like never before.




Ваше мнение



Капча