e: Sun, 26 Apr 1998 12:18:12 PDT
From: "Kristi M."
Subject: f/fleetwood_mac/rhiannon.tab
Fleetwood Mac
Rhiannon
Intro & Verse
(Am) (F)
[---------------[-------------[
[-1-3-5-3-1-0---[---0-1-0-0---[
[-2-4-5-4-2-0-2-[-2-0-2-0-0-2-[
[-------------3-[-3---------3-[
[---------------[-------------[
[---------------[-------------[
Chorus
(C) (F)
[-------[-----------[---------------[---[
[-------[-------1---[-------1-0-----[---[
[-0-2-0-[-*-0-2-0-*-[-*-0-2-2-0-2-*-[-0-[
[-2-3-2-[-*-2-3---*-[-*-2-3-----3-*-[-2-[
[-------[-----------[---------------[---[
[-------[-----------[---------------[---[
Break (1:49)
[---------------[
[-1-0-1-3-1-0---[
[-2-0-2-4-2-0-2-[
[-------------3-[
[---------------[
[---------------[
That's it! I know it's short but it's a really easy song.
[email protected]
http://members.tripod.com/~Terrapinstation2/terrapin.html




Ваше мнение



Капча