-----------------------------------------------------------
Oh Well (part 1) - Fleetwood Mac
-----------------------------------------------------------
By: Tom Nash
This is a Fleetwood Mac classic. I don't know how it can't already be here, but it wasn't,
so now it is. Uh..yeah. I've only submitted the struff for the main guitar. There's at
least one other guitar playing chords in the background.
E----------------------------------------------------------
B----------------------------------------------------------
G----------------------------------------------------------
D------------0---------2-2-2-------------0-----2----2-2----
A-------0h2-----2-0----2-2-2---------0h2---0h2------2-2----
E-0h3-0-------------3--0-0-0---0h3-0--------------3-0-0----

e|---------------------------------------------------------
B|---------------------------------------------------------
G|---------------------------------------------------------
D------------0---------2-2-2------------0h3-0--------------
A-------0h2-----2-0----2-2-2--------0h2-------2-0---------
E-0h3-0-------------3--0-0-0--0h3-0---------------3-2-0-0--
e|-------------12-12-12-12----------------12-12-12-12------
B|-------------12-12-12-12----------------12-12-12-12------
G|-------------12-12-12-12----------------12-12-12-12------
D|-0h2-2-2-2-2---------------------------------------------
A|--------------------------5h7-7-7-7-7--------------------
E|---------------------------------------------------------
e|---------------12-12-12-12-----------------------------
B|---------------12-12-12-12-----------------------------
G|---------------12-12-12-12-----------------------------
D|-------------------------------------------------------
A|-5h7-7-7-7-7-------------------5h7-7-7-7-7-7-----------
E|-------------------------------------------------------
e|---------------------------------------------------------
B|---------------------------------------------------------
G|-------12-----------------12-----------------12----------
D|-12h14----14-12h14--12h14----14-12h14--12h14----14-12h14-
A|---------------------------------------------------------
E|---------------------------------------------------------
e|---------------------------------------------
B|---------------------------------------------
G|-------12----------------12----14----15------
D|-12h14----14-12h14-12h14----14----14----14---
A|---------------------------------------------
E|---------------------------------------------
e|-----------------------------------------------
B|-------------------------------16-18-----------
G|----------------------12h14/16-----------------
D|-------------12-13-14--------------------------
A|-10/12-13-14-----------------------------------
E|-----------------------------------------------
Hope it's been helpful. My email is [email protected] if you need it,
but don't send me goldfish porn or anything.




Ваше мнение



Капча