-##
From: "Chan, Chris C. x7706"
Subject: NEVER GOING BACK AGAIN by Fleetwood Mac
Date: Mon, 30 Oct 95 10:30:00 EST
NEVER GOING BACK AGAIN by Fleetwood Mac
Try my version of this song. It's sounds close to the real thing (and it's
easy for me, a mediocre guitar player, to play). I included a bass guitar
part and two versions of the chorus accompanyment. The first version
is played in the open position (while capoed) and the alternate version is
played using barre chords.
CAPO 6th fret
(s = slide)
(. = beat)
***************************************************************************
[Intro]
C G C C G C
E |---------------|-----3------3-----|--------------|-----3------3----|
B |------1-----0--|-------1----------|-----1-----3--|-------1---------|
G |---------------|------------------|--------------|-----------------|
D |------2-----0--|-----2---------2--|-----2-----0--|-----2---------2-|
A |---3-----------|--3---------------|--3-----------|--3--------------|
E |---------3-----|----------3-------|--------3-----|----------3------|
. . . . . . . . . . . . . . . .
G7 C G C G
E |--0-----0-----0---|---0-----0-----0-|----------------|-------3----|
B |----3------3----3-|-----3-----3-----|-1-----3s-5--3--|-1----------|
G |------------------|-----------------|----------------|------------|
D |------3-------3---|-----3-------3---|----2--------0--|----2-----0-|
A |------------------|-----------------|-3--------------|-3----------|
E |--3--------3------|-3-------3-------|-------3--------|-------3----|
. . . . . . . . . . . . . . . .
[Verses]
C G C C G C
E ||------------------------|-----3------3----|------------|---3-----3---|
B ||--------1-----------0---|-------1---------|----1-----3-|-----1-------|
G ||.-----------------------|-----------------|------------|-------------|
D ||.-------2-----------0---|-----2---------2-|----2-----0-|---2-------2-|
A ||--3---------------------|-3---------------|-3----------|-3-----------|
E ||--------------3---------|----------3------|-------3----|-------3-----|
. . . . . . . . . . . . . . . .
1. She broke down and let me in.
2. gain.
3. You don't know what it means to win.
G7 C G C G
E |--0-----0-----0---|---0-----0-----0-|----------------|-------3----|
B |----3------3----3-|-----3-----3-----|-1-----3s-5--3--|-1----------|
G |------------------|-----------------|----------------|------------|
D |------3-------3---|-----3-------3---|----2--------0--|----2-----0-|
A |------------------|-----------------|-3--------------|-3----------|
E |--3--------3------|-3-------3-------|-------3--------|-------3----|
. . . . . . . . . . . . . . . .
C G C C G C
E |--------------------|------3-------3-----|------------|----3------3----|
B |--------1--------0--|--------1-----------|----1-----3-|------1---------|
G |--------------------|--------------------|------------|----------------|
D |--------2--------0--|------2----------2--|----2-----0-|----2---------2-|
A |--3-----------------|-3------------------|-3----------|-3--------------|
E |--------------3-----|------------3-------|-------3----|---------3------|
. . . . . . . . . . . . . . . .
1. Made me see where I've been.
2. gain.
3. Come down and see me a - gain.
G7 C G C G
E |--0-----0-----0---|---0-----0-----0-|----------------|-------3----|
B |----3------3----3-|-----3-----3-----|-1-----3s-5--3--|-1----------|
G |------------------|-----------------|----------------|------------|
D |------3-------3---|-----3-------3---|----2--------0--|----2-----0-|
A |------------------|-----------------|-3--------------|-3----------|
E |--3--------3------|-3-------3-------|-------3--------|-------3----|
. . . . . . . . . . . . . . . .
[Chorus (open chord version)]
C G C C G C
E |-------------|--------------------|--------------|--------------------|
B |----1-----0--|--1-----1------1----|----1------0--|--1-----1------1----|
G |-------------|----0------0-----0--|--------------|----0------0-----0--|
D |----2-----0--|------2------2------|----2------0--|------2------2------|
A |-3-----------|--3-----------------|-3------------|--3-----------------|
E |-------3-----|-----------3--------|--------3-----|-----------3--------|
. . . . . . . . . . . . . . . .
1. Been down one time Been down two
2.
3. Been down one time Been down two
C G C Am Em
E |---------------|-------------------|-------------|
B |----1-------0--|--1-----1-----1----|----1----0---|
G |---------------|----0-----0-----0--|-------------|
D |----2-------0--|------2-----2------|----2--------|
A |-3-------------|--3----------------|-0---------2-|
E |---------3-----|----------3--------|-------0-----|
. . . . . . . . . . . .
1. times I'm
2.
3.
-----------------------
|1,2,3. |
| |
C G
E |--------------3------||
B |--1------------------||
G |--------------------.||
D |--------2-----------.||
A |--3---------------2--||
E |--------------3------||
. . . .
1. never going back a-
2.
3. never going back a-
[Ending]
C G C C G C
E |---------------|-----3------3-----|--------------|-----3------3----|
B |------1-----0--|-------1----------|-----1-----3--|-------1---------|
G |---------------|------------------|--------------|-----------------|
D |------2-----0--|-----2---------2--|-----2-----0--|-----2---------2-|
A |-3-------------|--3---------------|--3-----------|--3--------------|
E |---------3-----|----------3-------|--------3-----|----------3------|
. . . . . . . . . . . . . . . .
gain.
G7 C G C
E |--0-----0-----0---|---0-----0-----0-|----------------|--0------|
B |----3------3----3-|-----3-----3-----|-1-----3s-5--3--|--1------|
G |------------------|-----------------|----------------|--0------|
D |------3-------3---|-----3-------3---|----2--------0--|--2------|
A |------------------|-----------------|-3--------------|--3------|
E |--3--------3------|-3-------3-------|-------3--------|--0------|
. . . . . . . . . . . . .
***************************************************************************
Bass guitar - this part is a simple alternating bass.
[intro and verse]
C G C C G C
G |---------|---------|---------|---------|
D |---------|---------|---------|---------|
A |-----4---|-----4---|-----4---|-----4---|
E |-2-------|-2-------|-2-------|-2-------|
. . . . . . . . . . . . . . . .
G7 G7 C G C G
G |---------|---------|---------|---------|
D |---------|---------|---------|---------|
A |-4---4---|-4---4---|-----4---|-----4---|
E |---------|---------|-2-------|-2-------|
. . . . . . . . . . . . . . . .
[chorus]
C G C C G C
G |---------|---------|---------|---------|
D |---------|---------|---------|---------|
A |-----4---|-----4---|-----4---|-----4---|
E |-2-------|-2-------|-2-------|-2-------|
. . . . . . . . . . . . . . . .
C G C Am Em C
G |---------|---------|---------|---------|
D |---------|---------|---------|---------|
A |-----4---|-----4---|-6-------|-6---4---|
E |-2-------|-2-------|-----6---|---------|
. . . . . . . . . . . . . . . .
***************************************************************************
[Alternate chorus - if you can reach these frets on your guitar]
E |----8--------|--8------8------8---|----8--------|--8------8------8---|
B |---------12--|----9------9------9-|---------12--|----9------9------9-|
G |-------------|--------------------|-------------|--------------------|
D |---10----12--|------10-----10-----|---10----12--|------10-----10-----|
A |------10-----|--------------------|------10-----|--------------------|
E |-8-----------|--8--------8--------|-8-----------|--8--------8--------|
. . . . . . . . . . . . . . . .
E |----8--------|--8------8------8---|-------------|--------3-----|
B |---------12--|----9------9------9-|--------0----|--1-----------|
G |-------------|--------------------|---5---------|--------------|
D |---10----12--|------10-----10-----|-----------2-|-----2--------|
A |------10-----|--------------------|---7---------|--3--------2--|
E |-8-----------|--8--------8--------|-5----0------|--------3-----|
. . . . . . . . . . . . . . . .
***************************************************************************




Ваше мнение



Капча