From: [email protected] (Malc Brookes)
Subject: TAB: Man Of The World, Fleetwood Mac.
Date: Mon, 28 Oct 1996 14:40:25 GMT
Man Of the World by Fleetwood Mac
Tuning:
Standard, EADGBE.
Intro:
D A Aadd6
E|--5--3--2--3-----2-----|--5-----2-----|
B|--3--3--3--3-----3-----|--2-----2-----|
G|--2--2--2--2-----2-----|--2-----2-----|
D|--0--0--0--0-----0-----|--2-----2-----|
A|-----------------------|--0-----0-----|
E|-----------------------|--------------|
Gm Gm9 D
E|--3--3--3--5-----5-----|--2-----------|
B|--3--3--3--3-----3-----|--3-----------|
G|--3--3--3--3-----3-----|--2-----------|
D|--5--5--5--3-----3-----|--0-----------|
A|--5--5--5--5-----5-----|--------------|
E|--3--3--3--3-----3-----|--------------|
D A Aadd6
E|--5--3--2--3-----2-----|--5-----2-----|
B|--3--3--3--3-----3-----|--2-----2-----|
G|--2--2--2--2-----2-----|--2-----2-----|
D|--0--0--0--0-----0-----|--2-----2-----|
A|-----------------------|--0-----0-----|
E|-----------------------|--------------|
Em Bm
E|--0--------3--2--0-----|--7-----------------|
B|--0--------0--0--0-----|--7-----------------|
G|--0--------0--0--0-----|--7-----------------|
D|--2--------2--2--2-----|--9-----9-----------|
A|--2--------2--2--2-----|--9-------9----9----|
E|--0--------0--0--0-----|--7---------10---7--|
Verse (as intro unless otherwise stated):
D A Aadd6
Shall I tell you about my life
Gm Gm9 D
They say I'm a man of the world
D A Aadd6
I've flown across every tide
Em Bm G
E|--0--------3--2--0-----|--7---------------3--|
B|--0--------0--0--0-----|--7---------------3--|
G|--0--------0--0--0-----|--7-----10p9p7----4--|
D|--2--------2--2--2-----|--9------------9--5--|
A|--2--------2--2--2-----|--9---------------5--|
E|--0--------0--0--0-----|--7---------------3--|
I've seen lots of pretty girls
D (first time thru only)
E|-----2--0--0-----2-----|--------5-2h3-2------|
B|--3--3--3--3--3--3-----|--3---3---------3----|
G|--2--2--2--2--2--2-----|----2-------------2--|
D|--0--0--0--0--0--0-----|---------------------|
A|-----------------------|---------------------|
E|-----------------------|---------------------|
Verse:
Yes I've got all the things I need
I couldn't ask for more
And there's no one I'd rather be
I just wish that I'd never been born
Instrumental:
D A Gm Gm9 D
D A Gm Gm9 D
Bridge:
F#m
And I need a good woman
Em
To make me feel like a good man should
F#m
I don't say that I'm a good man
Em Aadd6
Oh but I would be if I could
Verse:
I could tell you about my life
And keep you amused I'm sure
About all the times I've cried
And how I don't want to be sad anymore
And how I wish I was in love
Ending:
* = harmonics
F#m Em F#m Em D
E|--2-----0--12*--|--2-----0--12*--|------|
B|--2-----0--12*--|--2-----0--12*--|--7*--|
G|--2-----0--12*--|--2-----0--12*--|--7*--|
D|--4-----2-------|--4-----2-------|--7*--|
A|--4-----2-------|--4-----2-------|------|
E|--2-----0-------|--2-----0-------|------|
__________________________________________________________
Malc Brookes, St Helens, England
EMail: [email protected]
WWW Guitar Tab: http://www.malbro.demon.co.uk/tab/




Ваше мнение



Капча