Song: Landslide
Band: Fleetwood mac
Album: The Dance
Tabbed: Daniel Thomas ([email protected])
Tuning: E A D G B E
Capo: on the 3rd fret
chords used:
C: x32010
G/B: x20033
Am7: x02010
G: 320003
G/B*: x20030
Am7/G: x02013
C/G: x32013
INTRO:
C G/B Am7 G/B
|-----------------|----------------|----------------|----------------|
|-------1---------|------3---------|------1---------|------3---------|
|---0-------0-----|--0-------0-----|--0-------0-----|--0-------0-----|(repeat
|-----2-------2---|----0-------0---|----2-------2---|----0-------0---| 5x)
|-3-------3-------|2-------2-------|0-------0-------|2-------2-------|
|-----------------|----------------|----------------|----------------|
C G/B Am7
|---------------|---------------|-----------------------|
|-------1-------|-------3-------|-------1-----0-1-------|
|---0-------0---|---0-------0---|---0-------------------|
|-----2-------2-|-----0-------0-|-----2-----2-----2---0-|
|-3-------3-----|-2-------2-----|-0-------0---0-----2---|
|---------------|---------------|-----------------------|
C G/B
|---------------|---------------|-------------------|
|-------1-------|-------3-------|---1p0-1p0---3-1-0-|
|---0-------0---|---0-------0---|-----------2-------|
|-----2-------2-|-----0-------0-|-------------------|
|-3-------3-----|-2-------2-----|-0-----------------|
|---------------|---------------|-------------------|
C G/B Am7/G G/B
|-------0-----|-------3-----|-------3-----|-------3-----|
|-1-----------|-3-----------|-1-----------|-3-----------|
|---0---------|---0---------|---0---------|---0---------| (repeat
|-----2-----2-|-----0-----0-|-----2-----2-|-----0-----0-| 3x)
|-3-------3---|-2-------2---|-0-------0---|-2-------2---|
|-------------|-------------|-------------|-------------|

|---------|---------|-------------------|
|---------|---------|---1p0-1p0---3-1-0-|
|---------|---------|-----------2-------|
|---0---0-|---0---0-|-------------------|
|-3---3---|-2---2---|-0-----------------|
|---------|---------|-------------------|
(let last note of last 3 measures of this line ring)
C G/B Am7 G/B
|---------------|---------|-------0-|---------|
|-------1-------|-------3-|-1-------|-3-----1-|
|---0-------0---|---0-----|---0-----|---0-----|
|-----2-------2-|-----0---|-----2---|-----0---|
|-3-------3-----|-2-------|-0-------|-2-------|
|---------------|---------|---------|---------|
CHORUS:
G Am7 G/B* Am7
|-------3-------|-------------|-------0-----|-0-----0-----|
|---0-------0---|-1-----1-----|-3-----------|---1---------|
|---------------|---0---------|---0---------|-----0-------|
|---------------|-----2-----2-|-----0-----0-|-----2-----2-|
|-----2-------2-|-0-------0---|-2-------2---|-0-------0---|
|-3-------3-----|-------------|-------------|-------------|
C G/B Am7/G G/B
|------0-------|-------3-------|-------3-------|---------|
|--1-------1---|---3-------3---|---1-----1-----|-3-----1-|
|--------------|---------------|-----------0---|---0-----|
|----2-------2-|-----0-------0-|-----2-------2-|-----0---|
|3-------3-----|-2-------2-----|-0-------------|-2-------|
|--------------|---------------|---------------|---------|
G Am7 G/B* Am7
|-------3-------|-------------|-------0-----|-0-----0-----|
|---0-------0---|-1-----1-----|-3-----------|---1---------|
|---------------|---0---------|---0---------|-----0-------|
|---------------|-----2-----2-|-----0-----0-|-----2-----2-|
|-----2-------2-|-0-------0---|-2-------2---|-0-------0---|
|-3-------3-----|-------------|-------------|-------------|
C G/B Am7/G
|------0-------|-------3-------|-------3-------3-----3---|
|--1-------1---|---3-------3---|---1-----1-------1-----1-|
|--------------|---------------|-----------0-------0-----|
|----2-------2-|-----0-------0-|-----2-------2-----------|
|3-------3-----|-2-------2-----|-0-----------------------|
|--------------|---------------|-------------------------|
SOLO:
|-------------|---------|-0-------|---------|
|---------0-3-|---------|-----3---|-0-------|
|-----0h2-----|---------|---------|-----2-0-|
|---0-----0---|---0---0-|---0---0-|---0---0-|
|-3---3-------|-2---2---|-0---0---|-2---2---|
|-------------|---------|---------|---------|
|-----------|-----------|---------|---------|
|-----------|-----------|---------|---------|
|-------0h2-|-0---------|---------|---------|
|---0---0---|---0-----0-|---0---0-|---0---0-|
|-3---3-----|-2---2h3---|-0---0---|-2---2---|
|-----------|-----------|---------|---------|
|-------------|---------|-0-------|---------|
|---------0-3-|---------|-----3---|-0-------|
|-----0h2-----|---------|---------|-----2-0-|
|---0-----0---|---0---0-|---0---0-|---0---0-|
|-3---3-------|-2---2---|-0---0---|-2---2---|
|-------------|---------|---------|---------|

|-------------------|-3-2-3-5-3-2-3-2-0---0---------|
|-----1-0-----------|-------------------3---3-1-0---|
|---0-----2-0-------|-----------------------------2-|
|-2-----------0h2p0-|-------------------------------|
|-------------------|-------------------------------|
|-------------------|-------------------------------|
CHORUS:
G Am7 G/B* Am7
|-------3-------|-------------|-------0-----|-0-----0-----|
|---0-------0---|-1-----1-----|-3-----------|---1---------|
|---------------|---0---------|---0---------|-----0-------|
|---------------|-----2-----2-|-----0-----0-|-----2-----2-|
|-----2-------2-|-0-------0---|-2-------2---|-0-------0---|
|-3-------3-----|-------------|-------------|-------------|
C G/B Am7/G G/B
|------0-------|-------3-------|-------3-------|---------|
|--1-------1---|---3-------3---|---1-----1-----|-3-----1-|
|--------------|---------------|-----------0---|---0-----|
|----2-------2-|-----0-------0-|-----2-------2-|-----0---|
|3-------3-----|-2-------2-----|-0-------------|-2-------|
|--------------|---------------|---------------|---------|
G Am7 G/B* Am7
|-------3-------|-------------|-------0-----|-0-----0-----|
|---0-------0---|-1-----1-----|-3-----------|---1---------|
|---------------|---0---------|---0---------|-----0-------|
|---------------|-----2-----2-|-----0-----0-|-----2-----2-|
|-----2-------2-|-0-------0---|-2-------2---|-0-------0---|
|-3-------3-----|-------------|-------------|-------------|
C G/B Am7/G G/B
|------0-------|-------3-------|-------3-------|-------3-------|
|--1-------1---|---3-------3---|---1-------1---|---3-------3---|
|--------------|---------------|---------------|---------------|
|----2-------2-|-----0-------0-|-----2-------2-|-----0-------0-|
|3-------3-----|-2-------2-----|-0-------0-----|-2-------2-----|
|--------------|---------------|---------------|---------------|
C G/B Am7/G
|-------0-------|-------3-------|-------3--------3-----3---|
|---1-------1---|---3-------3---|---1------1-------1-----1-|
|---------------|---------------|------------0-------0-----|
|-----2-------2-|-----0-------0-|-----2--------2-----------|
|-3-------3-----|-2-------2-----|-0------------------------|
|---------------|---------------|--------------------------|
|---------|--------|---------|---------|
|---------|--------|---------|---------|
|---------|--------|---------|---------| repeat once
|---0---0-|---0---0|---0---0-|---0---0-|
|-3---3---|-2---2--|-0---0---|-2---2---|
|---------|--------|---------|---------|
C G/B Am7 G/B
|-----------------|----------------|----------------|-------3-------|
|-------1---------|------3---------|------1---------|--3--------3---|
|---0-------0-----|--0-------0-----|--0-------0-----|---------------|
|-----2-------2---|----0-------0---|----2-------2---|----0--------0-|
|-3-------3-------|2-------2-------|0-------0-------|2--------2-----|
|-----------------|----------------|----------------|---------------|
C/G G/B Am7/G G/B
|------3-------|-------3-------|-------3-------|-------3-------|
|--1-------1---|---3-------3---|---1-------1---|---3-------3---|
|--------------|---------------|---------------|---------------|
|----2-------2-|-----0-------0-|-----2-------2-|-----0-------0-|
|3-------3-----|-2-------2-----|-0-------0-----|-2-------2-----|
|--------------|---------------|---------------|---------------|
C G/B
|------0-------|-------3-------|------------|
|--1-------1---|---3-------3---|------------|
|--------------|---------------|------------|
|----2-------2-|-----0-------0-|------------|
|3-------3-----|-2-------2-----|-0(let ring)|
|--------------|---------------|------------|
|-------3-3-2-2---0(let ring)|
|---0-3---------3------------|
|-0--------------------------|
|----------------------------|
|----------------------------|
|----------------------------|
C G/B Am7/G G/B
|---------------|---------------|-------3-------|-------3-------|
|-------1-------|-------3-------|---1-------1---|---3-------3---|
|---0-------0---|---0-------0---|---------------|---------------|
|-----2-------2-|-----0-------0-|-----2-------2-|-----0-------0-|
|-3-------3-----|-2-------2-----|-0-------0-----|-2-------2-----|
|---------------|---------------|---------------|---------------|
C G/B Am
|-0-----0-----0-----|-3-----3-----3-----|---------0-|
|---1-----1-----1---|---3-----3-----3---|-------1---|
|-----0-----0-------|-----0-----0-------|-----2-----|
|-------2-----------|-------0-----------|---2-------|
|-3-----------3-----|-2-----------2-----|-0---------|
|-------------------|-------------------|-----------|




Ваше мнение



Капча