SONG: Don't Stop
ARTIST: Fleetwood Mac
TAB: Mikey ([email protected])
TUNING: Standard (EADG)
INTRO (0:08)
|-------------------------|-------------------------|-------------------------|-------------------------|
|-------------------------|-------------------------|-------------------------|-------------------------|
|-7---7-7---7-7---7-7---7-|-7---7-7---7-7---7-7---7-|-7---7-7---7-7---7-7---7-|-7---7-7---7-7---7-7---7-|
|-------------------------|-------------------------|-------------------------|-------------------------|
VERSE 1 (0:16)
|-------------------------|------------------------|||-------------------------|-------------------------|
o-------------------------|------------------------o||-------------------------|-------------------------|
o-7----7-7--5----5--5p3p0-|----------------------0-o||-------------------------|-----------------------0-|
|-------------------------|-5---5-5---5-5---5-5----|||-7---7-7---7-7---7-7---7-|-7---7-7---7-7---7-7-----|
x 3
CHORUS 1 (0:32)
||-------------------------|------------------------|||-------------------------|-------------------------||
|o-------------------------|------------------------o||-------------------------|-------------------------||
|o-7----7-7--5----5--5p3p0-|----------------------0-o||-------------------------|-----------------------0-||
||-------------------------|-5---5-5---5-5---5-5----|||-7---7-7---7-7---7-7---7-|-7---7-7---7-7---7-7-----||
x 3
VERSE 2 (0:49)
||-------------------------|------------------------|||-------------------------|-------------------------||
|o-------------------------|------------------------o||-------------------------|-------------------------||
|o-7----7-7--5----5--5p3p0-|----------------------0-o||-------------------------|-----------------------0-||
||-------------------------|-5---5-5---5-5---5-5----|||-7---7-7---7-7---7-7---7-|-7---7-7---7-7---7-7-----||
x 5
CHORUS 2 (1:13)
||-------------------------|------------------------|||-------------------------|-------------------------||
|o-------------------------|------------------------o|o-------------------------|-------------------------o|
|o-7----7-7--5----5--5p3p0-|----------------------0-o|o-------------------------|-------------------------o|
||-------------------------|-5---5-5---5-5---5-5----|||-7---7-7---7-7---7-7---7-|-7---7-7---7-7---7-7---7-||
x 3 x 2
BRIDGE/GUITAR SOLO (1:33)
||-------------------------|------------------------|||-------------------------|-------------------------||
|o-------------------------|------------------------o|o-------------------------|-------------------------o|
|o-7----7-7--5----5--5p3p0-|----------------------0-o|o-------------------------|-------------------------o|
||-------------------------|-5---5-5---5-5---5-5----|||-7---7-7---7-7---7-7---7-|-7---7-7---7-7---7-7---7-||
x 3 x 2
Repeat VERSE 1 at 1:53

CHORUS 3 (2:10)
||-------------------------|------------------------|-------------------------|-------------------------||
||-------------------------|------------------------|-------------------------|-------------------------||
||-7----7-7--5----5--5p3p0-|----------------------0-|-7----7-7--5----5--5p3p0-|-------------------------||
||-------------------------|-5---5-5---5-5---5-5----|-------------------------|-5-----------------------||
||-------------------------|------------------------|-------------------------|-------------------------||
||-------------------------|------------------------|-------------------------|-------------------------||
||-7----7-7--5----5--5p3p0-|------------------------|-------------------------|-------------------------||
||-------------------------|-5---5-5---5-5---5-5--5-|-7---7-7---7-7---7-7---7-|-7---7-7---7-7---7-7---7-||
||-------------------------|------------------------||-------------------------|-------------------------||
|o-------------------------|------------------------o|-------------------------|-------------------------||
|o-7----7-7--5----5--5p3p0-|----------------------0-o|-------------------------|-----------------------0-||
||-------------------------|-5---5-5---5-5---5-5----||-7---7-7---7-7---7-7---7-|-7---7-7---7-7---7-7-----||
x 3

OUTRO (2:42)
||-------------------------|-------------------------|-------------------------|-------------------------||
|o-------------------------|-------------------------|-------------------------|-------------------------o|
|o-7---7-7---7-x---7-7---5-|-----------0h5-0-0---0-5-|-7---7-7---7-x---7-7---5-|-------------------------o|
||-------------------------|-5---5-5-----------------|-------------------------|-5---5-5---5-5---5-5---5-||
(Fade Out)




Ваше мнение



Капча