Date: Mon, 24 Nov 1997 09:55:40 -0500
From: Joe Riess
To: [email protected]
Subject: TAB: "Bleed to Love Her" by Fleetwood Mac
Bleed to Love Her (Lindsey Buckingham)
Transcribed by: Joe Riess ([email protected])
capo at 1st fret
G - 320022
Gmaj7 - x30002
Dsus2 - xx0230
Gsus4 - x30030
A11 - 300200
Cmaj9 - x30200
Asus2 - x00200
Csus2 - x30030
Intro and verses:
G
---------3--------3-----3--------3--------3-----
------------------------------------------------
------0--------0--------------0--------0--------
------------------------------------------------
------------------------------------------------
---3--------3--------3-----3--------3-----------
Gmaj7 Dsus2
---2--------2--------2----------0--------0--------0--
-----------------------------------------------------
---------0--------0-------------------2--------2-----
-----------------------------------0--------0--------
------3--------3--------(3)--------------------------
-----------------------------------------------------
G
---------------------------------------------------------
---3--------3--------3--------------3--------3-----------
---------0--------0--------0-----0--------0--------0-----
---------------------------------------------------------
------------------------------2--------2--------2--------
------3--------3--------3--------------------------------
Gsus4 Dsus2
-----------------------------------------------------
---------3--------3----------------3--------3--------
------0--------0----------0-----2--------2--------2--
-----------------------------0--------0--------0-----
---3--------3--------2p0-----------------------------
-----------------------------------------------------
Chorus:
A11
---------------------------------------------------
---------0--------------0--------0--------------0--
------------------2-----------------------2--------
------0--------0--------------0--------0-----------
---------------------------------------------------
---3--------3--------3-----3--------3--------3-----
Cmaj9 Asus2
------------------------------------------
---------0-----------0--------0-----------
------0--------0--2--------2--------0--2--
------------------------0--------0--------
---3--------3-----------------------------
------------------------------------------
G Gmaj7 Dsus2
Once again she steals away
G Gsus4 Dsus2
Then she reaches out to kiss me
G Gmaj7 Dsus2
And how she takes my breath away
G Gsus4 Dsus2
Pretending that she won't miss me
A11 Cmaj9 Asus2
Oohh I would bleed to love her
A11 Cmaj9 Asus2
Bleed to love her
A11 Cmaj9 Asus2
Oohh I would bleed to love her
And once again she calls to me
Then she vanishes in thin air
And how she takes my breath away
Pretending that she's not there
Oohh I would bleed to love her
Bleed to love her
Oohh I would bleed to love her
G Csus2 Dsus2
Somebody's got to see this through
G Csus2 Dsus2
All the world is laughing at you
G Csus2 Dsus2
Somebody's got to sacrifice
G Csus2 Dsus2
If this whole thing's going to turn out right
Oohh I would bleed to love her
Bleed to love her
Oohh I would bleed to love her




Ваше мнение



Капча