-------------------------------------------------------------------------------
Flaw - Whole
-------------------------------------------------------------------------------
Tabbed by: Tyler Eibl
Email:[email protected]
Tuning: Drop B....I dont know what the other guy was thinking when he
tried to put it in standard tuning..
Opening note.. Next notes..
|--------|------------------------------------------------------------------|
|--------|------------------------------------------------------------------|
|--------|------------------------------------------------------------------|
|---0----|-----------10----------0-----10-10-10-10-10-10-10-10-10-10--9-7---|
|---0----|-----------10----------0-----10-10-10-10-10-10-10-10-10-10--9-7---|
|---0----|------------8----------0------8--8--8--8--8--8--8--8--8--8--7-5---|
Let ring.. Strum
Chorus..
|-----------------------------------|---------------------------------------|
|-----------------------------------|---------------------------------------|
|-----7-7-7-7--5-5-5-8-7-/10-------|-----7-7-7-7-5-5-5-8--7-7--------------|
|--0--7-7-7-7--5-5-5-8-7-/10-------|--0--7-7-7-7-5-5-5-8--7-7--------------|
|--0--5-5-5-5--3-3-3-6-5-/-8---X3--|--0--5-5-5-5-3-3-3-6-5-5--------------|
|--0--------------------------------|--0------------------------------------|
Verse..
|------------------------------------------------------------------
|------------------------------------------------------------------
|------------------------------------------------------------------
|--0----0--0-0----10-------0-0--0-0-0-0--11-0-0--0-0-0-0--0-0--11--
|--0----0--0-0----10-------0-0--0-0-0-0--10-0-0--0-0-0-0--0-0--10--
|--0----0--0-0-----8-------0-0--0-0-0-0-----0-0--0-0-0-0--0-0------
PM.....Strum.. PM..
---------------------------------------------------------------------------|
---------------------------------------------------------------------------|
---------------------------------------------------------------------------|
-0-0--0-0-0-0---0-0--10-10-10-10-10-10-10-10-10-10-10-10-10-10-------------|
-0-0--0-0-0-0---0-0---8--8--8--8--8--8--8--8--8--8--8--8--8--8-------------|
-0-0--0-0-0-0---0-0--------------------------------------------------------|
PM..
Bridge..
|-----------------------------------------------------------------|
|-----------------------------------------------------------------|
|-----------------------------------------------------------------|
|------0-0-0-11--0-0--0-0--11--0-0-0--11-0-0--0-0-0-11-11---------|
|------0-0-0-10--0-0--0-0--10--0-0-0--10-0-0--0-0-0-10-10---------|
|------0-0-0-----0-0--0-0------0-0-0-----0-0--0-0-0---------------|
*= PM * * * * * * * * * * * * * * *
Play these parts throughout the song, you should be able to find the order
yourself by playing this a few times... good luck, its not hard..
| / slide up
| slide down
| h hammer-on
| p pull-off
| ~ vibrato
| + harmonic
| x Mute note
===============================================================================





Ваше мнение



Капча