Flaw
Payback
Guitar tuned to Drop-B

I know that these are the right tabs for the parts. If someone can figure out the rest that be good.

Intro
---------------------------------------------------------
---------------------------------------------------------
-7-7-7-7-7-7-7-7-7-7-7-7-7-7-7-7-7-7-7-7-7-7-7-7-7-7-7-7-
-7-7-7-7-7-7-7-7-7-7-7-7-7-7-7-7-7-7-7-7-7-7-7-7-7-7-7-7-
-5-5-5-5-5-5-5-5-5-5-5-5-5-5-5-5-5-5-5-5-5-5-5-5-5-5-5-5-
---------------------------------------------------------

Intro (cont.)
---------
---------
---------
---------
-6-------
-6-------

Chorus
--------------------------------------------
--------------------------------------------
--------------------------------------------
--------------------------------------------
--0-0-0-0-x-0-0-0-0-0-0-0-0-0-0-x-0-0-0-6-5-
--0-0-0-0-x-0-0-0-0-0-0-0-0-0-0-x-0-0-0-6-5-

(Before Chorus)
-----------------------------
-----------------------------
--7-7-7-7-7-7-7-7-7-7-7-7----
--7-7-7-7-7-7-7-7-7-7-7-7----
--5-5-5-5-5-5-5-5-5-5-5-5--6-
---------------------------6-

Solo
----------------------------------
----------------------------------
----------------------------------
----------------------------------
--6-5-0-6-5-0-6-5-0-6-5-0-6-5-6-5-
----------------------------------

Actually, the intro and the pre-chorus are a bit sketchy, but i think they're right. Anyway, the chorus, solo, and tuning are right.





Ваше мнение



Капча