Author/Artist: Flaw
Title: Only the strong
Album: The skorpion king ost
Transcribed by: Me
Email: [email protected]
Tuning: drop d, 1 and 1/2 down (B F# B E G# C#)
Intro: x4 then x2
-|--------------------------------------------------------------------------|-
-|--------------------------------------------------------------------------|-
-|--------------------------------------------------------------------------|-
-|-2-h-3-3-p-2x---2-h-3-3-p-2x---2-h-3-3-p-2x---2-h-3-3-3-/-5---------------|-
-|-2-h-3-3-p-2x---2-h-3-3-p-2x---2-h-3-3-p-2x---2-h-3-3-3-/-5---------------|-
-|-2-h-3-3-p-2x---2-h-3-3-p-2x---2-h-3-3-p-2x---2-h-3-3-3-/-5---------------|-
Verse:
x3
-|--------------------------------------------------------------------------|-
-|--------------------------------------------------------------------------|-
-|--------------------------------------------------------------------------|-
-|-2-h-3-3-p-2x---2-h-3-3-p-2x---2-h-3-3-p-2x---2-h-3-3-3-/-5---------------|-
-|-2-h-3-3-p-2x---2-h-3-3-p-2x---2-h-3-3-p-2x---2-h-3-3-3-/-5---------------|-
-|-2-h-3-3-p-2x---2-h-3-3-p-2x---2-h-3-3-p-2x---2-h-3-3-3-/-5---------------|-
x1
-|--------------------------------------------------------------------------|-
-|--------------------------------------------------------------------------|-
-|--------------------------------------------------------------------------|-
-|-2-h-3-3-3-p-2-2-2-h-3-3-3-p-2-2-2-h-3-3-3-p-2-2-2-h-3-3-3-p-2------------|-
-|-2-h-3-3-3-p-2-2-2-h-3-3-3-p-2-2-2-h-3-3-3-p-2-2-2-h-3-3-3-p-2------------|-
-|-2-h-3-3-3-p-2-2-2-h-3-3-3-p-2-2-2-h-3-3-3-p-2-2-2-h-3-3-3-p-2------------|-
Chorus:
-|--------------------------------------------------------------------------|-
-|--------------------------------------------------------------------------|-
-|-----------------12---------------12--------------------------------------|-
-|-2--2--2-2-2-2-/-10--10--10-10-10-10--5--5--5-5-5-5--7--7--7--7-----------|-
-|-2--2--2-2-2-2-/-10--10--10-10-10-10--5--5--5-5-5-5--7--7--7--7-----------|-
-|-2--2--2-2-2-2-/-10--10--10-10-10-10--5--5--5-5-5-5--7--7--7--7-----------|-
-|--------------------------------------------------------------------------|-
-|--------------------------------------------------------------------------|-
-|-----------------12---------------12--------------------------------------|-
-|-2--2--2-2-2-2-/-10--10--10-10-10-10--5--5--5-5-5-5--3--3--3--3-----------|-
-|-2--2--2-2-2-2-/-10--10--10-10-10-10--5--5--5-5-5-5--3--3--3--3-----------|-
-|-2--2--2-2-2-2-/-10--10--10-10-10-10--5--5--5-5-5-5--3--3--3--3-----------|-
Interlude: x2
-|--------------------------------------------------------------------------|-
-|--------------------------------------------------------------------------|-
-|--------------------------------------------------------------------------|-
-|-2-h-3-3-p-2x---2-h-3-3-p-2x---2-h-3-3-p-2x---2-h-3-3-3-/-5---------------|-
-|-2-h-3-3-p-2x---2-h-3-3-p-2x---2-h-3-3-p-2x---2-h-3-3-3-/-5---------------|-
-|-2-h-3-3-p-2x---2-h-3-3-p-2x---2-h-3-3-p-2x---2-h-3-3-3-/-5---------------|-
Verse 2: same
Chorus 2: same
Bridge:
-|-------10-----------------------------------------------------------------|-
-|---8---8------------------------------------------------------------------|-
-|-----7-7------------------------------------------------------------------|-
-|-9-----9------------------------------------------------------------------|-
-|--------------------------------------------------------------------------|-
-|--------------------------------------------------------------------------|-
-|-10--10-----10-7---7-----7-10--10-----10----------------------------------|-
-|-8------8------8-----8-----8------8------7-----9--------------------------|-
-|-7--------7----7-------7---7--------7----7-----9--------------------------|-
-|-9-9-----------9-9---------9-9-----------5-----7--------------------------|-
-|--------------------------------------------------------------------------|-
-|--------------------------------------------------------------------------|-
-|-10--10-----10-7---7-----7-10--10-----10----------------------------------|-
-|-8------8------8-----8-----8------8---------------------------------------|-
-|-7--------7----7-------7---7--------7-------------------------------------|-
-|-9-9-----------9-9---------9-9-----------3-3-3-3-3-3-3-3-5-5-5-5-5-5-5-5--|-
-|-----------------------------------------3-3-3-3-3-3-3-3-5-5-5-5-5-5-5-5--|-
-|-----------------------------------------3-3-3-3-3-3-3-3-5-5-5-5-5-5-5-5--|-
Chorus 3: same x2





Ваше мнение



Капча