flaw one more time its 100% correct i watched the guitarist
play it at their show

tuning E B G D A E B
~~(hold note)

intro & verse
E---------------------------------
B---------------------------------
G---------------------------------
D---------------------------------
A---4~~---------------------------
E---4~~---------------------------
B---2~~---------------------------

pre-chorus
E---------------------------------
B---------------------------------
G---------------------------------
D---------------------------------
A---4-4-4~~----------------------- 4x
E---4-4-4~~-----------------------
B---2-2-2~~-----------------------

chorus
E---------------------------------
B---------------------------------
G---------------------------------
D-------6-7-6-4-6-------6-7-6-4---
A--4-4--x-x-x-x-x--4-4--x-x-x-x--- 4x
E--4-4--4-5-4-2-4--4-4--4-5-4-2---
B--2-2-------------2-2------------

thats all there is tothe song the it repeats its self again





Ваше мнение



Капча