Tuning (low to high) B F# B E G# C#

Intro and Verse
C#|----------------------------------------------
G#|-------3-----3---------0-0-0h1p0--------------
E |------0-0-----0------0------------0-2---------
B |----------------------------------------------
F#|----------------------------------------------
B |---2-------2-------0--------------------------

Chorus
C#|----------------------------------------------
G#|----------------------------------------------
E |----------------------------------------------
B |---0-0--2-2-2-2-2-2--0-0--0-0-0-0-0-0-0-------
F#|---0-0--2-2-2-2-2-2--0-0--0-0-0-0-0-0-0-------
B |---0-0--2-2-2-2-2-2--0-0--0-0-0-0-0-0-0-------

P.M. --- ---

I don't have all of the song but this is all I could do





Ваше мнение



Капча