okay these are the tabs for everthing up to the chorus, when i figure out more
ill post them.

tuned- C G C F A D (one whole step down on all strings, then one more step down
on low E string)

p= pulloff
*= palm mute

Intro:
use flange, phase, and overdrive

D----------------------------------------------------
A----------------------------------------------------
F----------------------------------------------------
C---6-7-6-7-6----6-7-6-7-6----6-7-6-7-6----6-7-6-7-6-
G-4-------------------------4------------------------
C--------------7-------------------------7-----------

Verse: Distortion
D---------------------------------------------------
A---------------------------------------------------
F---------------------------------------------------
C---------------------------------------------------
G-2p-6p-4p-0*-0*-0*-0*-2p--2p-6p-4p-0*-0*-0*-0*-4p--
C-2p-6p-4p-0*-0*-0*-0*-2p--2p-6p-4p-0*-0*-0*-0*-4p--

it does that, switching off the end note on the 2nd fret and 4th fret

Chorus: Distortion with extreme high end

D-----------------------
A-----------------------
F-----------------------
C-----------------------
G-9--------7----9----2--
C-9--------7----9----2--

i think thats the chorus, but it sounds like there might be one more chord im
missing. anyway thats all i have for now, later....





Ваше мнение



Капча