Moth in the Incubator
The Flaming Lips
By Nick Key

Wait awhile, then:
4x ^Bend this note
-------------
-------------
-------------
-5-5-2-5^--2-

When vocals start:
---------------
---------------
---------------
-5-5-2-5-5-5-2-

When vocals stop, go back to bending in intro
Repeat both parts again

End on E before the pause

Then: (until end)
--------------------------------------------
--------------------------------------------
-77777-777-77777--7--55555-555-55555--5-----
-----------------7-7-----------------5-5----

--------------------------------------------
--------------------------------------------
-22222--2--00000-000------------------------
-------2-2-----------00000-000-00000-000----




Ваше мнение



Капча