Be My Head
Flaming Lips
Nick Key

Intro
-------------------------------------------------------
-------------------------------------------------------
-------------------------/10-10101010-101010-101010----
-3-3-3-3-3-3-3-3-3-3-3-3-------------------------------

-------------------------------------------------------
-10-10-10-12-10-9-9-9-10-9----------9----------------9-
---------------------------12-12-12---12-10-10-10-12---
-------------------------------------------------------

Verse - 2x
-------------------------------------
-------------------------------------
-3-3-333-2-2-222-0-0-000-------------
-------------------------3-3-333-333-

-----------------------------------------
-----------------------------------------
-----------------3-3-33-2----------------
-1-1-111-1-1-111----------33-333-3-3-333-

Pre-Chorus - 3x
-------------------
-------------------
-------------------
-3-3-3-3-3-3-3-3---

Chorus
---------------------------------
---------------------------------
-3-3-333-7-7-777-8-8-888-3-3-333-
---------------------------------

Play first half of intro again
Verse
Pre-Chorus
Chorus
Pre-Chorus again (don't play last two notes)
Then Chorus
Pre-Chorus again, and end on C




Ваше мнение



Капча