Artist: Five
Song: When the Lights Go Out
Tabbed by: Brandon S.
Intro:
e-------------------------------------
b-3--3-2--2-1--1-0--0-----------------
g---2----2----2----2----3-3-3--3-2-2-2
d--3----3----3----3-------------------
a-------------------------------------
E-------------------------------------
Verse:
e----------------------------------------------------------
b----------------------------------------------------------
g--0-0-0-0-2-----0-0-0-2-0 -----------------------0-0-0-0-2
d-3-3-3-3-3-----3-3-3 3-0-3--0-3-2-3-2-3-2---3-3-3-3-3
a----------------------------------------------------------
E----------------------------------------------------------
e----------------------------------------0-1-0-----
b------1-----------------------1--------3-----1-2-3
g--0-0--2-----2-3-2-3-2-0---2-3-3-2-0-2--------2---
d-3-3-3--3-0-3-----------------------3-------------
a--------------------------------------------------
E--------------------------------------------------
Chorus:
e------1-----0-1-0-1-0-------1-0-------------1-----0-1-0-1-0----
b--1-3--3-3-2---3-----3-1-------3-1------1-3--3-3-2---3-----3-1-
g-2-----------------------3-3------2-2-2------------------------
e----1-0-----0-1---
b-------3-1-3---3-3
g-3-3------2-------




Ваше мнение



Капча