Where Zero Meets Fifteen
Five Iron Frenzy
5 Minute Walk

I know nothing of bass. I don't even know if that is the name of the
song. But I had to learn this to play at church camp so here it is.

This is the intro, main riff, and little piece in between:

|-------------------|
|-------------------|
|--------------5----|
|--5-5-5-0-0-0---4--|

Here is the pre-chorus:

|----------------------------------------------------------|
|----------------------------------------------------------|
|-2-2--7-7-7--2-2-2--7-7-7-------------5----------------5--|
|--------------------------5-5-5-0-0-0---4--5-5-5-0-0-0--4-|

Sometimes it does this at the end:

|------------------------------|
|-5-5-5-5-5-5-5-7-7-7-7-7-7--7-|
|------------------------------|
|------------------------------|

And here is the main chorus:

|-------------------|---------------------|
|-------------------|---------------------|
|--------------5----|---------------------|
|--5-5-5-0-0-0---4--|--2-2-2-0-2-0-4-7-5--|

|-------------------|---------------------|
|-------------------|---------------------|
|--------------5----|---------------------|
|--5-5-5-0-0-0---4--|--7-7-7-7-10-10-4-4--|

Here is the middle section:

|---------------------------|-----------------------------|
|---------------------------|-----------------------------|
|---------------------------|-----------------------------|
|-7-7-7-7-7-7-7-10-10-10-10-|-10-10-10-10-5-5-5-5-5-5-5-5-|

|---------------------------------------------------------|
|---------------------------------------------------------|
|-7-7-7-7-7-7-7-7-----------------------------------------|
|-----------------7-7-7-7-7-7-7-7-10-10-10-10-10-10-10-10-|

|--------------------------------------|
|------4-6------4-6------4-6------4-6--|
|--7-7------7-7------7-7------7-7------|
|--------------------------------------|

And thats it.Go to my page at
http://www.geocities.com/sunsetstrip/palms/8550/index.html

Comments or corrections always welcome- [[email protected]]

God Bless You
James Donnelly




Ваше мнение



Капча