Third World Think Tank
Five Iron Frenzy
Tabbed out by: Josiah Ziegler ([email protected])

INTRO:
G|------------------------------------------------------------------|
D|--------------------------------------1--------1-22-0-----22-0----|
A|------------------00-33-00-33-22-44-----2-4-------------3-------3-|
E|--00-22-33-44-----------------------------------------------------|

BRIDGE:
G|-------------------------------|
D|-----------------1-4-1---1-4-1-|
A|-----------00-2-------2--------|
E|-00-22-33----------------------|

CHORUS:
G|------------------------------4--------------------------------|
D|--------------------------2-5----2--------------2-5-2---4-5-4--|
A|----------7----------------------------4-5-4-3-------5---------|
E|-5-5-5-5---7-7-7-7-9------------5------------------------------|




Ваше мнение



Капча