Suckerpunch
5 min walk records
By Five Iron Frenzy
Album: Our newest album ever
Tab by Izzy ([email protected])
Order is: A,B,C,C,D,E,F,F,B,C,C,D,E,F,F,G,A,F,F
      I think this right.
  (A)
G----------------------------------------------------------------
D----------------------------------------------------------------
A -------4-5-7-5-4-5-7-5-4--------4-5-7-5-4-5-7-5-4--5-5-4-4-2-2-
E-5-5-5--------------------0-0-0---------------------------------
G -------------------|
D -------------------|
A ----5-5-4---7------|
E -5--------5--------|
  (B)
G -----------------------------------------------------------------|
D ------------4------------------------------------4---------------|
A ------4-5-7---7-5---5-4--------------------4-5-7----7-5--5-4---7-|
E -5-55-------------7------5-7-5-4-7-5--5-55-------------7-----5---|
 
  (C)
G------------------------------------------44-------------44-----
D---------44------------44-------------44------77------44-----77-
A-----44-----77-----44------77----55---------------55------------
E-55------------55-----------------------------------------------
G ------------------------------------------------------------|
D ---------44------------66-99-66---------44------------------|
A -----44-----77---77------------------44----77-77-55-44------|
E -55-------------------------------55-------------------77---|
  (D)
G-------------------------------------------------------------------------
D----66-777-9-----------------------------------------66-777-9---(pause)--
A-77----------7---(pause)-----44-555-7---(pause)--77-----------7----------
E--------------------------55----------5----------------------------------
G-------------------------------------------|
D-------------------------------------------|
A---(pause)-----44-555-7---------55-44------|
E-----------55------------5--55----------77-|
  (E)
G---------------------------------------------------------------
D--------------4-4-4--------------------------------------------
A-5-5-5-5-5-5--------7-7-7-5-5----------------4-4-4-------------
E--------------------------------5-5-5-5-5-5----------7-7-7-5-5-
G---------------------------------------------------------|
D------------4-4-4----------------------------------------|
A--5-5-5-5-5---------7-7-7-5-5-------------6-7-9----6-7-9-|
E------------------------------7-7-7-7-7-7--------7-------|
  (F)
G--------------------------------------------------------------------------
D----------------5555--------------------------------------------4444------
A---------4444---------7777---------4444-7777-5544--------4444--------7777-
E-5555------------------------5555-----------------5555--------------------
G---------------------|
D---------------------|
A---------------------|
E---5-4-2-0-2-4-5-----|
  (G)
G-------------------------------------------------------------|
D-44-44-44-----44-44-44-7766--44-44-44-----444444444-66666666-|
A----------77--------------------------77---------------------|
E-------------------------------------------------------------|




Ваше мнение



Капча