============================================================================
Song: So Far, So Bad
Band: Five Iron Frenzy
Album: The End is Near
Tabbed By : me
E-mail: [email protected]
Tuning: Standard

Intro
G|------------------------------------------|
D|------------------------------------------| (x2)
A|-000-444-333---------000-444-333------111-|
E|-------------0000000-------------0000-----|

Verse (x2)
G|---------------------------------------------------|
D|---------------------------------------------------|
A|---------------------------------------------------|
E|-5--2-3--4-5-4-5-2-3-2-3-4-5--2-3--4-5-4-5-2-3-2-3-|

G|------------------------------------------------------|
D|------------------------------------------------------|
A|-4-5--2-3--4-5-4-5-2-3-2-3----------------------------|
E|----------------------------4-5--2-3--4-5-4-5-2-3-2-3-|

Pre Chorus
G|-----------------------------------|
D|--------------------22-222-222-222-|
A|-33-3-33-3-33-333-3----------------|
E|-----------------------------------|

Chorus
G|-----------------------------------------|
D|---------2-4--------2-0--2------------22-|
A|-0--2-44------4-22---------00--2-4--2----|
E|-----------------------------------------|

G|-----------------------------------------|
D|---------2-4--------2-0--------2-4--4-22-|
A|-0--2-44------4-22-------2-44------------|
E|-----------------------------------------|

Interlude thing
G|--------------------------------------------|
D|-------------000-2------------------000-2---|
A|-----------4-------0000-----------4-------0-|
E|-000-2-444--------------000-2-444-----------|

G|-------------------------------------------------------------------------|
D|-------------------------------------------------------------------------|
A|------------------5555-00000000------------------------------------------|
E|-222-0-222-5-3333---------------00000000---------------------------------|

Verse 3 -- same as the chorus.
Then repeat the chorus & the intro and you're done!

| / slide up
| slide down
| h hammer-on
| p pull-off
| ~ vibrato
| + harmonic
| x Mute note
============================================================================




Ваше мнение



Капча