Riot Gear
Quantity is job 1
Ledgend: /= slide note
Probably their coolest guitar song
------10-----------12-------10-------------------------------------
-----------11---------------------10/11/10-------------------------
-------------------------------------------------------------------
-------------------------------------------------------------------
-------------------------------------------------------------------
-------------------------------------------------------------------
------10-----------12-------14-----12------------------------------R
-----------11----------------------------13------10----------------E
-------------------------------------------------------------------P
-------------------------------------------------------------------E
-------------------------------------------------------------------A
-------------------------------------------------------------------T




Ваше мнение



Капча