i copied this from another site, it works properly in courier size 8 or 9
******************
Tabbed by Andrew Schell [email protected]
Thanks to Matthew Price for the chords to the Verse
*Best viewed in Courier 8pt*
standard tuning
INTRO
Guitar 1 fig 1
e|--0---0---0---0---0---0---0---0---0--0---0--0--0--0--0--0-|
B|--12--12--12--10--10--10--10--10--9--10--9--5--5--5--5--5-|
G|----------------------------------------------------------| x2
D|----------------------------------------------------------|
A|----------------------------------------------------------|
E|----------------------------------------------------------|
Gtr 1
-0--0--0--0--0--0--0--0--0--0--0--0--0--0--0--0--0--0--0--0-|
-5--5--5--5--5--5--5--5--5--5--5--5--5--5--5--5--5--5--5--5-|
------------------------------------------------------------|
------------------------------------------------------------|
------------------------------------------------------------|
------------------------------------------------------------|
Gtr 2
E
------------------------------------------------------------|
------------------------------------------------------------|
------------------------------------------------------------|
-2----------------------------------------------------------|
-2----------------------------------------------------------|
-0----------------------------------------------------------|
VERSE
Gtr 2
e C# D C# A E
-------------------------------------|-------------------------------------|
-------------------------------------|-------------------------------------|
--9---x--9---6---7---x--7--7---7--7--|--6---x--6---------------------------|
--9---x--9---6---7---x--7--7---7--7--|--6---x--6---7---2---x--2--2---2--2--|x2
--7---x--7---4---5---x--5--5---5--5--|--4---x--4---7---2---x--2--2---2--2--|
-------------------------------------|-------------5---0---x--0--0---0--0--|
Cruisin' downtown in your Camaro REO Speedwagon on the stereo
It's kind of catchy, kind of a virus Cutting your hair like Billy Ray Cyrus
Gtr 1
g# e f# g# e f# g#
----------------------------------------|---------------------------------|
----------------------------------------|---------------------------------|
--13-13-13-13-x-9-11-11-11-11--11-11-11-|-13-9-9-9-x-11-13-13-13-13-13-13-|
--x—-x-—x-—x-—x-x—x--x-—x-—x---x-—x-—x--|-x—-x-x-x-x-x--x--x-—x-—x--x-—x--|x2
--11-11-11-11-x-7-9--9--9--9---9--9--9--|-11-7-7-7-x-9--11-11-11-11-11-11-|
----------------------------------------|---------------------------------|
You're probably bummed, You probably cried You're probably sad that the guy
from Lynyrd Skynyrd died,
You're probably singing oh, oh, oh All night long
------------------------------------|--------------------------------------|
------------------------------------|--------------------------------------|
*--9--x--9---6--7---x--7--7---7--7--|--6--x--6----------------------------*|
*--9--x--9---6--7---x--7--7---7--7--|--6--x--6---7---2---x--2--2---2--2---*|
---7--x--7---4--5---x--5--5---5--5--|--4--x--4---7---2---x--2--2---2--2----|
------------------------------------|------------5---0---x--0--0---0--0----|
PRE-CHORUS
Gtr 2
e f C g
------------------------------------|----------------------------------------|
------------------------------------|----------------------------------------|
------------------------------------|----------------------------------------|
--9-9---9--9--9-10-10---10--10--10--|---------------------12-12---12-12--12--|
--7-7-x-7--7--7-8--8--x-8---8---8---|--10-10---10--10--10-10-10-x-10-10--10--|
------------------------------------|--8--8--x-8---8---8---------------------|
Feel the power of the phantom mullet Tremble and cower from the phantom
mullet White metal burn of the phantom mullet Combed straight or permed
it's the phantom mullet

CHORUS
e f e f g f e
-------------------------------------------------|
-------------------------------------------------|
-9--9--9--9--9--10-9--10-12-12-12-12-12-10-10-9--|
-x—x—x—x—x—x—x—x—x—x—x—x—x—x—x—x--|
-7--7--7--7--7--8--7--8--10-10-10-10-10-8--8--7--|
-------------------------------------------------|
1.And you, cutting it short on top
2.Growing it long in the back,
C g
-------------------------------------------------|
-------------------------------------------------|
-------------------------------------------------|
-------------------------12-12-12-12-12-12-12-12-|
-10-10-10-10-10-10-10-10-10-10-10-10-10-10-10-10-|
-8--8--8--8--8--8--8--8--------------------------|
D e D e f
-----------------------------------------|
-----------------------------------------|
-7-7-7-7-7-9-7-9-10-10-10-10-10-10-10-10-|
-x-x-x-x-x-x-x-x-x—-x—-x—-x—-x—-x—-x—-x--|
-5-5-5-5-5-7-5-7-8--8--8--8--8--8--8--8--|
-----------------------------------------|
I want that for me
So savage and so free
D f
-----------------------------------------|
-----------------------------------------|
-----------------------------------------|
-7-7-7-7-7-7-7-7-10-10-10-10-10-10-10-10-|
-5-5-5-5-5-5-5-5-8--8--8--8--8--8--8--8--|
-----------------------------------------|

Gtr 1 playing INRTO fig 1
Gtr 2 playing E chord

VERSE 2
Drop into first you're taking it slow,
You're such a rock-star,
You could never know
I wish I was singing, oh, oh, oh, All night long
Pre-Chorus
CHORUS x 2
SOLO
Gtr 1 plays this over Gtr 2 solo
e B e A
-----------------------------------|-----------------------------------|
-----------------------------------|-----------------------------------|
-----------------------------------|-----------------------------------| x2
--9-9-9----------------------------|--9-9-9----------------------------|
--7-7-7-9-9-9-9-9-9-9-9-9-9-9-9-9--|--7-7-7-7-7-7-7-7-7-7-7-7-7-7-7-7--|
--------7-7-7-7-7-7-7-7-7-7-7-7-7--|--------5-5-5-5-5-5-5-5-5-5-5-5-5--|
f Bb f C x2
------------------------|------------------------------------------------|
------------------------|------------------------------------------------|
------------------------|------------------------------------------------|
-10-10-10---------------|-10-10-10---------------------------------------|
-8--8--8--8888888888888-|-8--8--8-10-10-10-10-10-10-10-10-10-10-10-10-10-|
----------6666666666666-|---------8--8--8--8--8--8--8--8--8--8--8--8--8--|
CHORUS until end
If someone ever tabs out the solo, please submit it to this site or to me.




Ваше мнение



Капча