ARTIST: Five Iron Frenzy
ALBUM: Quantity is Job 1
SONG: My Evil Plan to Save the World
Tabbed by Vic
/=Slide up
>=strum
INTRO:(x2)
G:------------------------------------------------------I
D:------------------------------------------------------I
A:-33-33------55-55-------------------------------------I
E:---3----------5----------5-----3-----1-----3----------I
VERSE: (x2)
G:-------------------------------------------------------------------I
D:--77-7-7-77-7--22-2-2-22-2--33-3-3-6-66-5-3------------------------I
A:------7----7-------2----2-------3------------33-7-7-101010-8-7-----I
E:-------------------------------------------------------------------I
CHORUS:(x2)
G:------------------------------------------------------I
D:-------------------6----------------------------------I
A:--7---5---3---7--88-8-----/11-10---5----3-------------I
E:----------------------88-8----------------------------I
G:--------------------------------------------------------I
D:--------------------------------------------------------I
A:--3-----3----5-----5----9-----3----3-----3----5-----5---I
E:-3-3-3-3-3--5-5-5-5-5--9-9-3-3-3--3-3-3-3-3--5-5-5-5-5--I
G:---------------------------------------I
D:--------------------------------3--5---I
A:---------3>-----------3>--3--5---------I
E:-1>--3>-------1>--3>-------------------I
MELLOW/QUIET BIT:(x4)
G:--5-----55-7-----777--------------------------I
D:---555-5----777-7----7-7-5555-5-3-3-6666-6----I
A:----------------------7------5---3------6-----I
E:----------------------------------------------I
The bass in this song is hard to hear and work out in places, so if you
have any corrections, send them to me at:
[email protected]
The end of the chorus is wrong, but I couldn't get anything that
sounded right.




Ваше мнение



Капча