name: Matt Price
artist: Five Iron Frenzy
SongTitle: Giants
Tabs: Song: Giants
Artist: Five Iron Frenzy
Album: All The Hype That Money Can Buy
Copyright: 2000 5 Minute Walk Records
Tabbed By: Matthew Price ([email protected])
Intro Lead:
--5-------------------------|
----5----------------5------|
------7--5--3--5--7----7----|Repeat
----------------------------|
----------------------------|
----------------------------|
Intro Rhythm: (play these chords a couple times each)
--5--6--5--8-|
--5--6--5--8-|
--6--7--6--9-|
--7--8--7-10-|
Verses:
--5-5-5-5----8-8-8-8------8-8-8-8------5-5-5-5-|
--5-5-5-5----8-8-8-8-----10-10-10-10---7-7-7-7-|
--6-6-6-6----9-9-9-9-----10-10-10-10---7-7-7-7-|
--7-7-7-7--10-10-10-10---10-10-10-10---7-7-7-7-|
--7-7-7-7--10-10-10-10---8-8-8-8-------7-7-7-7-|
--5-5-5-5----8-8-8-8-----8-8-8-8-------5-5-5-5-|
Pre Chorus: (play these chords)
--3--5-|
--3--5-|
--4--6-|repeat x2
--5--7-|
--0--1--1--3-|
--0--1--1--3-|
--0--2--2--4-|play each chord twice
--2--3--3--5-|
Chorus:
--3--3--5--1---3--0--1---3--3--5--1-|
--5--3--5--1---3--0--1---5--3--5--1-|
--5--4--6--2---4--0--2---5--4--6--2-|
--5--5--7--3---5--2--3---5--5--7--3-|
--3--5--7--3---5--2--3---3--5--7--3-|
--3--3--5--1---3--0--1---3--3--5--1-|
--3--1--0-|
--3--1--0-|
--4--2--0-|
--5--3--2-|
--5--3--2-|
--3--1--0-|
Bridge:
play an Em when the little girl talks
The rest of the bridge
-------------------|
-------------------|
--5----------------|
--5--5--7--3-------|
--3--5--7--3-------|
-----3--5--1-------|
Lead for bridge/chorus (when all the people sing the chorus):
--------------------------------------------------|
--------------------------------------------------|
--------------------------------------------------|
-----2--5--7--9--10--9--7--5--5--7--3--5--2--3--0-|
--5-----------------------------------------------|
--------------------------------------------------|
I don't think I have the prechourus right. If
anyone knows that part, please send it in.




Ваше мнение



Капча