Band: Five Iron Frenzy
Song: Get Your Riot Gear
Album: Quality Is Job One

This is a realy cool song with a great bass line. Here it is:

Intro/ verse:

G|-11--------------10-11----------------10-11-
D|---11-9-----12-11------11-9------12-11-------
A|-------12-11---------------12-11------------
E|--------------------------------------------

G|---------------------------------------
D|-11-9-----12----12---------------------
A|-----12-11---10----9-9-7-7----------8-8-
E|--------------------------10-10-9-9----

Pre-Chorus:

G|--------------------------------------
D|------------------4-4-4---------------
A-7-7----7-7-----4-4-----5-5-5-5-7-7-7-9-
E|----5-5----5-5-------------------------

Chorus:

G|----------------
D|--------4-4-----
A|----4-4--------- 4x
E|-5-5--------0-0-
Go and get.......

G|---------------
D|-----4-2-----4-2
A|-0h4-----0-4---- 2x
E|----------------
Swing her......

Thats about all folks.
Send comments, corrections, requests to
[email protected]




Ваше мнение



Капча