----------------------------------------------------------------------------
FARSIGHTED - Five Iron Frenzy
----------------------------------------------------------------------------

Album: Five Iron Frenzy 2: Electric Boogaloo
Email: [email protected]

Tuning: Standard

Intro (Guitar 1)
e|-------------------------------------|
B|-------------------------------------|
G|-----------------------------------o-|
D|-----------------------------------o-|
A|-4p1--------------(x3)---------1-2---|
E|-----2-2-2-2/62--------4-6-7--------|
* * * *
(Guitar 2)
e|--------------------------------------|
B|--------------------------------------|
G|------------------------------------o-|
D|-4----------------------------------o-|
A|-------1h4--------(x3)--2-4-5--4-2----|
E|---2-2-----2-2-2----------------------|
* * * * *
Verse (Guitar 1)
e|------------------------------------|
B|------------------------------------|
G|----------------------------------o-|
D|----------------------------------o-|
A|-4p1-------------(x3)---------1-2---|
E|-----2-2-2-2-2-2-------4-6-7--------|
* * * * * *
(Guitar 2)
e|-------------------------------------|
B|-------------------------------------|
G|-----------------------------------o-|
D|-4---------------------------------o-|
A|------------------(x3)--2-4-5--4-2---|
E|---2-2-2-2-2-2-2---------------------|
* * * * * * * * *
Chorus (Guitar 1 - these might not be octaves, i'm not sure)
& the number of times you play each one is indicated below it.
e|-------------------------------------------------------------------------|
B|-------------------------------------------------------------------------|
G|-8--10--11--13--10--11--13-----18---------13---------16------11----------|
D|-x--x---x---x---x---x---x------x----------x----------x-------x-----------|
A|-6--8---9---10--8---9---11-----16---------11---------14------9-----------|
E|-------------------------------------------------------------------------|
(4)(4) (4) (4) (4) (4) (8) (16) (16) (16) (16)

Chorus (Guitar 2 - These might be played as bar chords, too.)
B F# C#
e|---------------------------------------------------------------------|
B|---------------------------------------------------------------------|
G|-44444444444444444444444444444444------------------6666666666666666--|
D|-44444444444444444444444444444444-4444444444444444-6666666666666666--|
A|-22222222222222222222222222222222-4444444444444444-4444444444444444--|
E|----------------------------------2222222222222222-------------------|
D#m B
e|------------------------------------|
B|------------------------------------|
G|-8888888888888888-4444444444444444--|
D|-8888888888888888-4444444444444444--|
A|-6666666666666666-2222222222222222--|
E|------------------------------------|

o intro
o verse
o chorus: play B, F# and C# twice before you play D#m and B

Bridge/Outro?
e|-------------------------------|
B|-------------------------------|
G|--------4-4--4---------------o-|
D|-4-4--4-4-4--4-2-2--2-4-4--4-o-| x2
A|-4-4--4-2-2--2-2-2--2-4-4--4---|
E|-2-2--2--------0-0--0-2-2--2---|

e|---------------------|
B|---------------------|
G|-------------------o-|
D|-4--4-4-4-22-4-444-o-| many times.
A|-4--2-1-4-22-4-444---|
E|-2------2-00-2-222---|

yeah um it took a real long time to write this out and i'm too lazy to check over
it but post corrections and email me and stuff...i'm pretty sure it's right though.

| / slide up
| slide down
| h hammer-on
| p pull-off
| ~ vibrato
| + harmonic
| x Mute note
| * Palm mute
============================================================================




Ваше мнение



Капча