faking life
five iron frenzy

verse:

G---------------------------4-------------------------------------
D-5-7--------------4--7-----------4-2---4-2-4--------2-4
A------------------5--------------2-------5--------------2-----
E-------------------------------3------------------------3--------

chorus:

D-2---------3-----3
A----2---4-----4---
E-------2------------

after chorus

A--------2-4
E-2-4-------




Ваше мнение



Капча